  0
SECTION
  2
HEADER
  9
$ACADVER
  1
AC1014
  9
$ACADMAINTVER
 70
     5
  9
$DWGCODEPAGE
  3
ANSI_1252
  9
$INSBASE
 10
393.63464
 20
1813.35196
 30
0.0
  9
$EXTMIN
 10
122.071567
 20
1474.051033
 30
-0.000006
  9
$EXTMAX
 10
665.524454
 20
2028.206914
 30
0.000026
  9
$LIMMIN
 10
0.0
 20
0.0
  9
$LIMMAX
 10
3360.0
 20
2376.0
  9
$ORTHOMODE
 70
     1
  9
$REGENMODE
 70
     1
  9
$FILLMODE
 70
     1
  9
$QTEXTMODE
 70
     0
  9
$MIRRTEXT
 70
     0
  9
$DRAGMODE
 70
     2
  9
$LTSCALE
 40
1.0
  9
$OSMODE
 70
     0
  9
$ATTMODE
 70
     1
  9
$TEXTSIZE
 40
3.5
  9
$TRACEWID
 40
0.05
  9
$TEXTSTYLE
  7
ROMANS
  9
$CLAYER
  8
035-DWG
  9
$CELTYPE
  6
BYLAYER
  9
$CECOLOR
 62
   256
  9
$CELTSCALE
 40
1.0
  9
$DELOBJ
 70
     1
  9
$DISPSILH
 70
     0
  9
$DIMSCALE
 40
8.0
  9
$DIMASZ
 40
2.5
  9
$DIMEXO
 40
1.5
  9
$DIMDLI
 40
5.0
  9
$DIMRND
 40
0.0
  9
$DIMDLE
 40
0.0
  9
$DIMEXE
 40
1.0
  9
$DIMTP
 40
0.0
  9
$DIMTM
 40
0.0
  9
$DIMTXT
 40
3.0
  9
$DIMCEN
 40
-2.0
  9
$DIMTSZ
 40
0.0
  9
$DIMTOL
 70
     0
  9
$DIMLIM
 70
     0
  9
$DIMTIH
 70
     0
  9
$DIMTOH
 70
     0
  9
$DIMSE1
 70
     0
  9
$DIMSE2
 70
     0
  9
$DIMTAD
 70
     1
  9
$DIMZIN
 70
     8
  9
$DIMBLK
  1

  9
$DIMASO
 70
     1
  9
$DIMSHO
 70
     1
  9
$DIMPOST
  1

  9
$DIMAPOST
  1

  9
$DIMALT
 70
     0
  9
$DIMALTD
 70
     2
  9
$DIMALTF
 40
25.4
  9
$DIMLFAC
 40
1.0
  9
$DIMTOFL
 70
     1
  9
$DIMTVP
 40
0.0
  9
$DIMTIX
 70
     0
  9
$DIMSOXD
 70
     0
  9
$DIMSAH
 70
     0
  9
$DIMBLK1
  1

  9
$DIMBLK2
  1

  9
$DIMSTYLE
  2
STANDAARD
  9
$DIMCLRD
 70
   256
  9
$DIMCLRE
 70
   256
  9
$DIMCLRT
 70
   256
  9
$DIMTFAC
 40
0.75
  9
$DIMGAP
 40
1.5
  9
$DIMJUST
 70
     0
  9
$DIMSD1
 70
     0
  9
$DIMSD2
 70
     0
  9
$DIMTOLJ
 70
     1
  9
$DIMTZIN
 70
     8
  9
$DIMALTZ
 70
     8
  9
$DIMALTTZ
 70
     8
  9
$DIMFIT
 70
     3
  9
$DIMUPT
 70
     0
  9
$DIMUNIT
 70
     2
  9
$DIMDEC
 70
     0
  9
$DIMTDEC
 70
     1
  9
$DIMALTU
 70
     2
  9
$DIMALTTD
 70
     2
  9
$DIMTXSTY
  7
ROMANS
  9
$DIMAUNIT
 70
     0
  9
$LUNITS
 70
     2
  9
$LUPREC
 70
     4
  9
$SKETCHINC
 40
0.1
  9
$FILLETRAD
 40
1.0
  9
$AUNITS
 70
     0
  9
$AUPREC
 70
     4
  9
$MENU
  1
wtb2
  9
$ELEVATION
 40
0.0
  9
$PELEVATION
 40
0.0
  9
$THICKNESS
 40
0.0
  9
$LIMCHECK
 70
     0
  9
$BLIPMODE
 70
     0
  9
$CHAMFERA
 40
0.0
  9
$CHAMFERB
 40
0.0
  9
$CHAMFERC
 40
0.0
  9
$CHAMFERD
 40
0.0
  9
$SKPOLY
 70
     0
  9
$TDCREATE
 40
2451578.409790035
  9
$TDUPDATE
 40
2452583.451605682
  9
$TDINDWG
 40
2.6352461111
  9
$TDUSRTIMER
 40
2.6352461111
  9
$USRTIMER
 70
     1
  9
$ANGBASE
 50
0.0
  9
$ANGDIR
 70
     0
  9
$PDMODE
 70
     3
  9
$PDSIZE
 40
0.0
  9
$PLINEWID
 40
0.0
  9
$COORDS
 70
     2
  9
$SPLFRAME
 70
     0
  9
$SPLINETYPE
 70
     6
  9
$SPLINESEGS
 70
     8
  9
$ATTDIA
 70
     0
  9
$ATTREQ
 70
     1
  9
$HANDLING
 70
     1
  9
$HANDSEED
  5
2AE
  9
$SURFTAB1
 70
     6
  9
$SURFTAB2
 70
     6
  9
$SURFTYPE
 70
     6
  9
$SURFU
 70
     6
  9
$SURFV
 70
     6
  9
$UCSNAME
  2

  9
$UCSORG
 10
0.0
 20
0.0
 30
0.0
  9
$UCSXDIR
 10
1.0
 20
0.0
 30
0.0
  9
$UCSYDIR
 10
0.0
 20
1.0
 30
0.0
  9
$PUCSNAME
  2

  9
$PUCSORG
 10
0.0
 20
0.0
 30
0.0
  9
$PUCSXDIR
 10
1.0
 20
0.0
 30
0.0
  9
$PUCSYDIR
 10
0.0
 20
1.0
 30
0.0
  9
$USERI1
 70
     0
  9
$USERI2
 70
     0
  9
$USERI3
 70
     0
  9
$USERI4
 70
     0
  9
$USERI5
 70
     0
  9
$USERR1
 40
0.0
  9
$USERR2
 40
0.0
  9
$USERR3
 40
0.0
  9
$USERR4
 40
0.0
  9
$USERR5
 40
0.0
  9
$WORLDVIEW
 70
     1
  9
$SHADEDGE
 70
     3
  9
$SHADEDIF
 70
    70
  9
$TILEMODE
 70
     1
  9
$MAXACTVP
 70
    16
  9
$PINSBASE
 10
0.0
 20
0.0
 30
0.0
  9
$PLIMCHECK
 70
     0
  9
$PEXTMIN
 10
1.000000E+20
 20
1.000000E+20
 30
1.000000E+20
  9
$PEXTMAX
 10
-1.000000E+20
 20
-1.000000E+20
 30
-1.000000E+20
  9
$PLIMMIN
 10
0.0
 20
0.0
  9
$PLIMMAX
 10
12.0
 20
9.0
  9
$UNITMODE
 70
     0
  9
$VISRETAIN
 70
     0
  9
$PLINEGEN
 70
     0
  9
$PSLTSCALE
 70
     0
  9
$TREEDEPTH
 70
  3020
  9
$PICKSTYLE
 70
     1
  9
$CMLSTYLE
  2
STANDARD
  9
$CMLJUST
 70
     0
  9
$CMLSCALE
 40
1.0
  9
$PROXYGRAPHICS
 70
     1
  9
$MEASUREMENT
 70
     0
  0
ENDSEC
  0
SECTION
  2
CLASSES
  0
CLASS
  1
LWPOLYLINE
  2
AcDbPolyline
  3
"AutoCAD"
 90
        0
280
     0
281
     1
  0
CLASS
  1
HATCH
  2
AcDbHatch
  3
"ACAD_SEDONA"
 90
        0
280
     0
281
     1
  0
CLASS
  1
ACMDATUMID
  2
AcmDatumId
  3
AutoCadMServices
 90
      255
280
     1
281
     1
  0
CLASS
  1
ACMFCFRAME
  2
AcmFCF
  3
AutoCadMServices
 90
      255
280
     1
281
     1
  0
CLASS
  1
AMLOADER
  2
AMLoader
  3
AMAcad
 90
        0
280
     0
281
     0
  0
ENDSEC
  0
SECTION
  2
TABLES
  0
TABLE
  2
VPORT
  5
12
100
AcDbSymbolTable
 70
     2
  0
VPORT
  5
2AD
100
AcDbSymbolTableRecord
100
AcDbViewportTableRecord
  2
*ACTIVE
 70
     0
 10
0.0
 20
0.0
 11
1.0
 21
1.0
 12
393.79801
 22
1751.128973
 13
0.0
 23
0.0
 14
20.0
 24
20.0
 15
40.0
 25
40.0
 16
0.0
 26
0.0
 36
1.0
 17
0.0
 27
0.0
 37
0.0
 40
560.394034
 41
1.650376
 42
50.0
 43
0.0
 44
0.0
 50
0.0
 51
0.0
 71
     0
 72
 20000
 73
     1
 74
     0
 75
     0
 76
     0
 77
     0
 78
     1
  0
ENDTAB
  0
TABLE
  2
LTYPE
  5
D
100
AcDbSymbolTable
 70
     1
  0
LTYPE
  5
E
100
AcDbSymbolTableRecord
100
AcDbLinetypeTableRecord
  2
BYBLOCK
 70
     0
  3

 72
    65
 73
     0
 40
0.0
  0
LTYPE
  5
F
100
AcDbSymbolTableRecord
100
AcDbLinetypeTableRecord
  2
BYLAYER
 70
     0
  3

 72
    65
 73
     0
 40
0.0
  0
LTYPE
  5
5
100
AcDbSymbolTableRecord
100
AcDbLinetypeTableRecord
  2
CONTINUOUS
 70
     0
  3
Solid line
 72
    65
 73
     0
 40
0.0
  0
ENDTAB
  0
TABLE
  2
LAYER
  5
A
100
AcDbSymbolTable
 70
     4
  0
LAYER
  5
4
100
AcDbSymbolTableRecord
100
AcDbLayerTableRecord
  2
0
 70
     0
 62
     8
  6
CONTINUOUS
  0
LAYER
  5
20
100
AcDbSymbolTableRecord
100
AcDbLayerTableRecord
  2
025-DWG
 70
     0
 62
     7
  6
CONTINUOUS
  0
LAYER
  5
1B
100
AcDbSymbolTableRecord
100
AcDbLayerTableRecord
  2
035-DWG
 70
     0
 62
     2
  6
CONTINUOUS
  0
LAYER
  5
3B
100
AcDbSymbolTableRecord
100
AcDbLayerTableRecord
  2
DIM-LINE
 70
     0
 62
     7
  6
CONTINUOUS
  0
ENDTAB
  0
TABLE
  2
STYLE
  5
B
100
AcDbSymbolTable
 70
     2
  0
STYLE
  5
C
100
AcDbSymbolTableRecord
100
AcDbTextStyleTableRecord
  2
STANDARD
 70
     0
 40
0.0
 41
1.0
 50
0.0
 71
     0
 42
15.0
  3
txt
  4

  0
STYLE
  5
1C
100
AcDbSymbolTableRecord
100
AcDbTextStyleTableRecord
  2
ROMANS
 70
     0
 40
0.0
 41
1.0
 50
0.0
 71
     0
 42
3.5
  3
romans
  4

  0
ENDTAB
  0
TABLE
  2
VIEW
  5
10
100
AcDbSymbolTable
 70
     0
  0
ENDTAB
  0
TABLE
  2
UCS
  5
11
100
AcDbSymbolTable
 70
     0
  0
ENDTAB
  0
TABLE
  2
APPID
  5
14
100
AcDbSymbolTable
 70
     1
  0
APPID
  5
15
100
AcDbSymbolTableRecord
100
AcDbRegAppTableRecord
  2
ACAD
 70
     0
  0
ENDTAB
  0
TABLE
  2
DIMSTYLE
  5
16
100
AcDbSymbolTable
 70
     1
  0
DIMSTYLE
105
1E
100
AcDbSymbolTableRecord
100
AcDbDimStyleTableRecord
  2
STANDAARD
 70
     0
  3

  4

  5

  6

  7

 40
8.0
 41
2.5
 42
1.5
 43
5.0
 44
1.0
 45
0.0
 46
0.0
 47
0.0
 48
0.0
140
3.0
141
-2.0
142
0.0
143
25.4
144
1.0
145
0.0
146
0.75
147
1.5
 71
     0
 72
     0
 73
     0
 74
     0
 75
     0
 76
     0
 77
     1
 78
     8
170
     0
171
     2
172
     1
173
     0
174
     0
175
     0
176
   256
177
   256
178
   256
270
     2
271
     0
272
     1
273
     2
274
     2
340
1C
275
     0
280
     0
281
     0
282
     0
283
     1
284
     8
285
     8
286
     8
287
     3
288
     0
  0
ENDTAB
  0
TABLE
  2
BLOCK_RECORD
  5
1
100
AcDbSymbolTable
 70
     0
  0
BLOCK_RECORD
  5
2
100
AcDbSymbolTableRecord
100
AcDbBlockTableRecord
  2
*MODEL_SPACE
  0
BLOCK_RECORD
  5
7
100
AcDbSymbolTableRecord
100
AcDbBlockTableRecord
  2
*PAPER_SPACE
  0
ENDTAB
  0
ENDSEC
  0
SECTION
  2
BLOCKS
  0
BLOCK
  5
3
100
AcDbEntity
  8
0
100
AcDbBlockBegin
  2
*MODEL_SPACE
 70
     0
 10
0.0
 20
0.0
 30
0.0
  3
*MODEL_SPACE
  1

  0
ENDBLK
  5
6
100
AcDbEntity
  8
0
100
AcDbBlockEnd
  0
BLOCK
  5
8
100
AcDbEntity
 67
     1
  8
0
100
AcDbBlockBegin
  2
*PAPER_SPACE
 70
     0
 10
0.0
 20
0.0
 30
0.0
  3
*PAPER_SPACE
  1

  0
ENDBLK
  5
9
100
AcDbEntity
 67
     1
  8
0
100
AcDbBlockEnd
  0
ENDSEC
  0
SECTION
  2
ENTITIES
  0
CIRCLE
  5
1F
100
AcDbEntity
  8
025-DWG
100
AcDbCircle
 10
393.63464
 20
1813.35196
 30
0.0
 40
118.0
  0
CIRCLE
  5
21
100
AcDbEntity
  8
035-DWG
100
AcDbCircle
 10
393.63464
 20
1813.35196
 30
0.0
 40
135.0
  0
CIRCLE
  5
22
100
AcDbEntity
  8
025-DWG
100
AcDbCircle
 10
393.63464
 20
1813.35196
 30
0.0
 40
193.5
  0
CIRCLE
  5
23
100
AcDbEntity
  8
025-DWG
100
AcDbCircle
 10
393.63464
 20
1813.35196
 30
0.0
 40
197.5
  0
CIRCLE
  5
24
100
AcDbEntity
  8
035-DWG
100
AcDbCircle
 10
393.63464
 20
1813.35196
 30
0.0
 40
214.8
  0
ARC
  5
25
100
AcDbEntity
  8
025-DWG
100
AcDbCircle
 10
393.63464
 20
1813.35196
 30
0.0
 40
177.5
100
AcDbArc
 50
22.132827
 51
168.954596
  0
LINE
  5
26
100
AcDbEntity
  8
035-DWG
100
AcDbLine
 10
535.935044
 20
1850.107889
 30
0.0
 11
535.152362
 21
1849.878918
 31
0.0
  0
LINE
  5
27
100
AcDbEntity
  8
035-DWG
100
AcDbLine
 10
538.377264
 20
1840.732542
 30
0.0
 11
535.152362
 21
1849.878918
 31
0.0
  0
LINE
  5
28
100
AcDbEntity
  8
035-DWG
100
AcDbLine
 10
535.935044
 20
1776.998922
 30
0.0
 11
535.152362
 21
1777.227893
 31
0.0
  0
LINE
  5
29
100
AcDbEntity
  8
035-DWG
100
AcDbLine
 10
538.377264
 20
1786.374269
 30
0.0
 11
535.152362
 21
1777.227893
 31
0.0
  0
POLYLINE
  5
2A
100
AcDbEntity
  8
035-DWG
100
AcDb2dPolyline
 66
     1
 10
0.0
 20
0.0
 30
0.0
  0
VERTEX
  5
2B
100
AcDbEntity
  8
035-DWG
100
AcDbVertex
100
AcDb2dVertex
 10
540.009214
 20
1854.237817
 30
0.0
 42
0.119813
  0
VERTEX
  5
2C
100
AcDbEntity
  8
035-DWG
100
AcDbVertex
100
AcDb2dVertex
 10
537.170475
 20
1852.823165
 30
0.0
 42
0.135368
  0
VERTEX
  5
2D
100
AcDbEntity
  8
035-DWG
100
AcDbVertex
100
AcDb2dVertex
 10
535.152362
 20
1849.878918
 30
0.0
  0
SEQEND
  5
2E
100
AcDbEntity
  8
035-DWG
  0
POLYLINE
  5
2F
100
AcDbEntity
  8
035-DWG
100
AcDb2dPolyline
 66
     1
 10
0.0
 20
0.0
 30
0.0
  0
VERTEX
  5
30
100
AcDbEntity
  8
035-DWG
100
AcDbVertex
100
AcDb2dVertex
 10
540.009214
 20
1772.868994
 30
0.0
 42
-0.119813
  0
VERTEX
  5
31
100
AcDbEntity
  8
035-DWG
100
AcDbVertex
100
AcDb2dVertex
 10
537.170475
 20
1774.283647
 30
0.0
 42
-0.135368
  0
VERTEX
  5
32
100
AcDbEntity
  8
035-DWG
100
AcDbVertex
100
AcDb2dVertex
 10
535.152362
 20
1777.227893
 30
0.0
  0
SEQEND
  5
33
100
AcDbEntity
  8
035-DWG
  0
ARC
  5
34
100
AcDbEntity
  8
025-DWG
100
AcDbCircle
 10
393.63464
 20
1813.35196
 30
0.0
 40
177.5
100
AcDbArc
 50
192.080121
 51
347.919879
  0
LINE
  5
35
100
AcDbEntity
  8
035-DWG
100
AcDbLine
 10
379.343355
 20
1529.660082
 30
0.0
 11
371.365326
 21
1599.953873
 31
0.0
  0
LINE
  5
36
100
AcDbEntity
  8
035-DWG
100
AcDbLine
 10
417.373235
 20
1599.953873
 30
0.0
 11
409.395207
 21
1529.660082
 31
0.0
  0
POLYLINE
  5
37
100
AcDbEntity
  8
DIM-LINE
100
AcDb2dPolyline
 66
     1
 10
0.0
 20
0.0
 30
0.0
  0
VERTEX
  5
38
100
AcDbEntity
  8
DIM-LINE
100
AcDbVertex
100
AcDb2dVertex
 10
392.403235
 20
1512.122296
 30
0.0
 42
0.017904
  0
VERTEX
  5
39
100
AcDbEntity
  8
DIM-LINE
100
AcDbVertex
100
AcDb2dVertex
 10
392.54698
 20
1516.135329
 30
0.0
 42
0.004335
  0
VERTEX
  5
3A
100
AcDbEntity
  8
DIM-LINE
100
AcDbVertex
100
AcDb2dVertex
 10
392.538549
 20
1517.107788
 30
0.0
 42
0.018284
  0
SEQEND
  5
3C
100
AcDbEntity
  8
DIM-LINE
  0
POLYLINE
  5
3D
100
AcDbEntity
  8
DIM-LINE
100
AcDb2dPolyline
 66
     1
 10
0.0
 20
0.0
 30
0.0
  0
VERTEX
  5
3E
100
AcDbEntity
  8
DIM-LINE
100
AcDbVertex
100
AcDb2dVertex
 10
390.038906
 20
1512.20678
 30
0.0
 42
0.047166
  0
VERTEX
  5
3F
100
AcDbEntity
  8
DIM-LINE
100
AcDbVertex
100
AcDb2dVertex
 10
389.743767
 20
1515.700482
 30
0.0
 42
0.061097
  0
VERTEX
  5
40
100
AcDbEntity
  8
DIM-LINE
100
AcDbVertex
100
AcDb2dVertex
 10
388.941181
 20
1518.289695
 30
0.0
 42
0.01296
  0
VERTEX
  5
41
100
AcDbEntity
  8
DIM-LINE
100
AcDbVertex
100
AcDb2dVertex
 10
388.214101
 20
1519.800492
 30
0.0
 42
0.029301
  0
SEQEND
  5
42
100
AcDbEntity
  8
DIM-LINE
  0
POLYLINE
  5
43
100
AcDbEntity
  8
025-DWG
100
AcDb2dPolyline
 66
     1
 10
0.0
 20
0.0
 30
0.0
  0
VERTEX
  5
44
100
AcDbEntity
  8
025-DWG
100
AcDbVertex
100
AcDb2dVertex
 10
404.570257
 20
1512.329685
 30
0.0
 42
-0.056447
  0
VERTEX
  5
45
100
AcDbEntity
  8
025-DWG
100
AcDbVertex
100
AcDb2dVertex
 10
404.644364
 20
1514.640155
 30
0.0
 42
-0.024827
  0
VERTEX
  5
46
100
AcDbEntity
  8
025-DWG
100
AcDbVertex
100
AcDb2dVertex
 10
404.84136
 20
1515.64028
 30
0.0
 42
-0.044824
  0
SEQEND
  5
47
100
AcDbEntity
  8
025-DWG
  0
POLYLINE
  5
48
100
AcDbEntity
  8
DIM-LINE
100
AcDb2dPolyline
 66
     1
 10
0.0
 20
0.0
 30
0.0
  0
VERTEX
  5
49
100
AcDbEntity
  8
DIM-LINE
100
AcDbVertex
100
AcDb2dVertex
 10
398.699655
 20
1512.20678
 30
0.0
 42
-0.047166
  0
VERTEX
  5
4A
100
AcDbEntity
  8
DIM-LINE
100
AcDbVertex
100
AcDb2dVertex
 10
398.994794
 20
1515.700482
 30
0.0
 42
-0.003614
  0
VERTEX
  5
4B
100
AcDbEntity
  8
DIM-LINE
100
AcDbVertex
100
AcDb2dVertex
 10
399.02452
 20
1515.858654
 30
0.0
 42
-0.020614
  0
SEQEND
  5
4C
100
AcDbEntity
  8
DIM-LINE
  0
LWPOLYLINE
  5
4D
100
AcDbEntity
  8
035-DWG
100
AcDbPolyline
 90
        6
 70
     0
 43
0.0
 10
412.734041
 20
1511.620091
 10
411.942074
 20
1511.877416
 42
-0.395928
 10
411.810161
 20
1512.117366
 10
412.278258
 20
1513.940486
 42
-0.395928
 10
412.509451
 20
1514.087206
 10
413.327425
 20
1513.931169
  0
POLYLINE
  5
4E
100
AcDbEntity
  8
DIM-LINE
100
AcDb2dPolyline
 66
     1
 10
0.0
 20
0.0
 30
0.0
  0
VERTEX
  5
4F
100
AcDbEntity
  8
DIM-LINE
100
AcDbVertex
100
AcDb2dVertex
 10
396.335326
 20
1512.122296
 30
0.0
 42
-0.017904
  0
VERTEX
  5
50
100
AcDbEntity
  8
DIM-LINE
100
AcDbVertex
100
AcDb2dVertex
 10
396.191582
 20
1516.135329
 30
0.0
 42
-0.004335
  0
VERTEX
  5
51
100
AcDbEntity
  8
DIM-LINE
100
AcDbVertex
100
AcDb2dVertex
 10
396.200012
 20
1517.107788
 30
0.0
 42
-0.018284
  0
SEQEND
  5
52
100
AcDbEntity
  8
DIM-LINE
  0
POLYLINE
  5
53
100
AcDbEntity
  8
035-DWG
100
AcDb2dPolyline
 66
     1
 10
0.0
 20
0.0
 30
0.0
  0
VERTEX
  5
54
100
AcDbEntity
  8
035-DWG
100
AcDbVertex
100
AcDb2dVertex
 10
403.192947
 20
1529.047628
 30
0.0
 42
-0.106423
  0
VERTEX
  5
55
100
AcDbEntity
  8
035-DWG
100
AcDbVertex
100
AcDb2dVertex
 10
406.276806
 20
1524.872179
 30
0.0
 42
-0.106423
  0
VERTEX
  5
56
100
AcDbEntity
  8
035-DWG
100
AcDbVertex
100
AcDb2dVertex
 10
407.369281
 20
1519.797628
 30
0.0
 42
-0.106423
  0
VERTEX
  5
57
100
AcDbEntity
  8
035-DWG
100
AcDbVertex
100
AcDb2dVertex
 10
406.276806
 20
1514.723077
 30
0.0
 42
-0.056042
  0
VERTEX
  5
58
100
AcDbEntity
  8
035-DWG
100
AcDbVertex
100
AcDb2dVertex
 10
404.869281
 20
1512.353872
 30
0.0
  0
SEQEND
  5
59
100
AcDbEntity
  8
035-DWG
  0
POLYLINE
  5
5A
100
AcDbEntity
  8
035-DWG
100
AcDb2dPolyline
 66
     1
 10
0.0
 20
0.0
 30
0.0
 70
     2
  0
VERTEX
  5
5B
100
AcDbEntity
  8
035-DWG
100
AcDbVertex
100
AcDb2dVertex
 10
404.869281
 20
1512.353872
 30
0.0
 42
-0.056447
  0
VERTEX
  5
5C
100
AcDbEntity
  8
035-DWG
100
AcDbVertex
100
AcDb2dVertex
 10
404.941223
 20
1514.596855
 30
0.0
 42
-0.056447
 70
     1
  0
VERTEX
  5
5D
100
AcDbEntity
  8
035-DWG
100
AcDbVertex
100
AcDb2dVertex
 10
405.512966
 20
1516.766938
 30
0.0
 42
-0.044824
  0
VERTEX
  5
5E
100
AcDbEntity
  8
035-DWG
100
AcDbVertex
100
AcDb2dVertex
 10
406.305001
 20
1518.365659
 30
0.0
 42
-0.044824
 70
     1
  0
VERTEX
  5
5F
100
AcDbEntity
  8
035-DWG
100
AcDbVertex
100
AcDb2dVertex
 10
407.369281
 20
1519.797628
 30
0.0
  0
SEQEND
  5
60
100
AcDbEntity
  8
035-DWG
  0
POLYLINE
  5
61
100
AcDbEntity
  8
025-DWG
100
AcDb2dPolyline
 66
     1
 10
0.0
 20
0.0
 30
0.0
  0
VERTEX
  5
62
100
AcDbEntity
  8
025-DWG
100
AcDbVertex
100
AcDb2dVertex
 10
384.168304
 20
1512.329685
 30
0.0
 42
0.056447
  0
VERTEX
  5
63
100
AcDbEntity
  8
025-DWG
100
AcDbVertex
100
AcDb2dVertex
 10
384.094197
 20
1514.640155
 30
0.0
 42
0.024827
  0
VERTEX
  5
64
100
AcDbEntity
  8
025-DWG
100
AcDbVertex
100
AcDb2dVertex
 10
383.897201
 20
1515.64028
 30
0.0
 42
0.044824
  0
SEQEND
  5
65
100
AcDbEntity
  8
025-DWG
  0
LWPOLYLINE
  5
66
100
AcDbEntity
  8
035-DWG
100
AcDbPolyline
 90
        4
 70
     0
 43
0.0
 10
376.504315
 20
1511.703414
 42
-0.417384
 10
376.251643
 20
1511.833882
 42
-0.026016
 10
375.768016
 20
1513.717487
 42
-0.417384
 10
375.92658
 20
1513.953543
  0
POLYLINE
  5
67
100
AcDbEntity
  8
035-DWG
100
AcDb2dPolyline
 66
     1
 10
0.0
 20
0.0
 30
0.0
  0
VERTEX
  5
68
100
AcDbEntity
  8
035-DWG
100
AcDbVertex
100
AcDb2dVertex
 10
385.545614
 20
1529.047628
 30
0.0
 42
0.106423
  0
VERTEX
  5
69
100
AcDbEntity
  8
035-DWG
100
AcDbVertex
100
AcDb2dVertex
 10
382.461755
 20
1524.872179
 30
0.0
 42
0.106423
  0
VERTEX
  5
6A
100
AcDbEntity
  8
035-DWG
100
AcDbVertex
100
AcDb2dVertex
 10
381.369281
 20
1519.797628
 30
0.0
 42
0.106423
  0
VERTEX
  5
6B
100
AcDbEntity
  8
035-DWG
100
AcDbVertex
100
AcDb2dVertex
 10
382.461755
 20
1514.723077
 30
0.0
 42
0.056042
  0
VERTEX
  5
6C
100
AcDbEntity
  8
035-DWG
100
AcDbVertex
100
AcDb2dVertex
 10
383.869281
 20
1512.353872
 30
0.0
  0
SEQEND
  5
6D
100
AcDbEntity
  8
035-DWG
  0
POLYLINE
  5
6E
100
AcDbEntity
  8
035-DWG
100
AcDb2dPolyline
 66
     1
 10
0.0
 20
0.0
 30
0.0
 70
     2
  0
VERTEX
  5
6F
100
AcDbEntity
  8
035-DWG
100
AcDbVertex
100
AcDb2dVertex
 10
383.869281
 20
1512.353872
 30
0.0
 42
0.056447
  0
VERTEX
  5
70
100
AcDbEntity
  8
035-DWG
100
AcDbVertex
100
AcDb2dVertex
 10
383.797338
 20
1514.596855
 30
0.0
 42
0.056447
 70
     1
  0
VERTEX
  5
71
100
AcDbEntity
  8
035-DWG
100
AcDbVertex
100
AcDb2dVertex
 10
383.225595
 20
1516.766938
 30
0.0
 42
0.044824
  0
VERTEX
  5
72
100
AcDbEntity
  8
035-DWG
100
AcDbVertex
100
AcDb2dVertex
 10
382.43356
 20
1518.365659
 30
0.0
 42
0.044824
 70
     1
  0
VERTEX
  5
73
100
AcDbEntity
  8
035-DWG
100
AcDbVertex
100
AcDb2dVertex
 10
381.369281
 20
1519.797628
 30
0.0
  0
SEQEND
  5
74
100
AcDbEntity
  8
035-DWG
  0
ARC
  5
75
100
AcDbEntity
  8
035-DWG
100
AcDbCircle
 10
394.369281
 20
1517.547628
 30
0.0
 40
19.3
100
AcDbArc
 50
302.959184
 51
237.040816
  0
LINE
  5
76
100
AcDbEntity
  8
035-DWG
100
AcDbLine
 10
405.53331
 20
1494.756178
 30
0.0
 11
409.705251
 21
1486.642295
 31
0.0
  0
LWPOLYLINE
  5
77
100
AcDbEntity
  8
035-DWG
100
AcDbPolyline
 90
        4
 70
     0
 43
0.0
 10
410.259883
 20
1507.507678
 42
-0.417384
 10
410.320414
 20
1507.229828
 42
-0.026016
 10
409.177347
 20
1505.656531
 42
-0.417384
 10
408.894391
 20
1505.62824
  0
ARC
  5
78
100
AcDbEntity
  8
035-DWG
100
AcDbCircle
 10
404.369281
 20
1483.898682
 30
0.0
 40
6.0
100
AcDbArc
 50
301.756864
 51
27.211017
  0
ARC
  5
79
100
AcDbEntity
  8
025-DWG
100
AcDbCircle
 10
404.369281
 20
1483.898682
 30
0.0
 40
5.7
100
AcDbArc
 50
301.756864
 51
27.211017
  0
ARC
  5
7A
100
AcDbEntity
  8
035-DWG
100
AcDbCircle
 10
394.369281
 20
1500.054176
 30
0.0
 40
25.0
100
AcDbArc
 50
270.0
 51
301.756864
  0
ARC
  5
7B
100
AcDbEntity
  8
025-DWG
100
AcDbCircle
 10
394.369281
 20
1500.054176
 30
0.0
 40
24.7
100
AcDbArc
 50
270.0
 51
287.254814
  0
ARC
  5
7C
100
AcDbEntity
  8
DIM-LINE
100
AcDbCircle
 10
394.369281
 20
1508.460714
 30
0.0
 40
18.0
100
AcDbArc
 50
261.454752
 51
299.508121
  0
ARC
  5
7D
100
AcDbEntity
  8
025-DWG
100
AcDbCircle
 10
394.369281
 20
1500.054176
 30
0.0
 40
21.7
100
AcDbArc
 50
270.0
 51
284.434816
  0
ARC
  5
7E
100
AcDbEntity
  8
035-DWG
100
AcDbCircle
 10
394.369281
 20
1500.054176
 30
0.0
 40
22.0
100
AcDbArc
 50
270.0
 51
305.343658
  0
ARC
  5
7F
100
AcDbEntity
  8
025-DWG
100
AcDbCircle
 10
394.369281
 20
1500.054176
 30
0.0
 40
21.7
100
AcDbArc
 50
255.565184
 51
270.0
  0
POLYLINE
  5
80
100
AcDbEntity
  8
DIM-LINE
100
AcDb2dPolyline
 66
     1
 10
0.0
 20
0.0
 30
0.0
  0
VERTEX
  5
81
100
AcDbEntity
  8
DIM-LINE
100
AcDbVertex
100
AcDb2dVertex
 10
388.499062
 20
1509.850793
 30
0.0
 42
0.068389
  0
VERTEX
  5
82
100
AcDbEntity
  8
DIM-LINE
100
AcDbVertex
100
AcDb2dVertex
 10
390.70388
 20
1509.075859
 30
0.0
 42
0.038125
  0
VERTEX
  5
83
100
AcDbEntity
  8
DIM-LINE
100
AcDbVertex
100
AcDb2dVertex
 10
392.000672
 20
1508.912638
 30
0.0
  0
SEQEND
  5
84
100
AcDbEntity
  8
DIM-LINE
  0
LINE
  5
85
100
AcDbEntity
  8
025-DWG
100
AcDbLine
 10
405.919986
 20
1498.091668
 30
0.0
 11
404.869281
 21
1498.091668
 31
0.0
  0
LINE
  5
86
100
AcDbEntity
  8
025-DWG
100
AcDbLine
 10
405.919986
 20
1498.091668
 30
0.0
 11
405.919986
 21
1502.085701
 31
0.0
  0
LINE
  5
87
100
AcDbEntity
  8
025-DWG
100
AcDbLine
 10
404.569281
 20
1512.353872
 30
0.0
 11
404.569281
 21
1505.81686
 31
0.0
  0
POLYLINE
  5
88
100
AcDbEntity
  8
DIM-LINE
100
AcDb2dPolyline
 66
     1
 10
0.0
 20
0.0
 30
0.0
  0
VERTEX
  5
89
100
AcDbEntity
  8
DIM-LINE
100
AcDbVertex
100
AcDb2dVertex
 10
400.284015
 20
1509.873826
 30
0.0
 42
-0.069856
  0
VERTEX
  5
8A
100
AcDbEntity
  8
DIM-LINE
100
AcDbVertex
100
AcDb2dVertex
 10
398.034681
 20
1509.075859
 30
0.0
 42
-0.038125
  0
VERTEX
  5
8B
100
AcDbEntity
  8
DIM-LINE
100
AcDbVertex
100
AcDb2dVertex
 10
396.737889
 20
1508.912638
 30
0.0
  0
SEQEND
  5
8C
100
AcDbEntity
  8
DIM-LINE
  0
LINE
  5
8D
100
AcDbEntity
  8
025-DWG
100
AcDbLine
 10
404.569281
 20
1499.896501
 30
0.0
 11
404.569281
 21
1497.499792
 31
0.0
  0
LINE
  5
8E
100
AcDbEntity
  8
025-DWG
100
AcDbLine
 10
406.198473
 20
1491.383952
 30
0.0
 11
404.863569
 21
1495.596786
 31
0.0
  0
LINE
  5
8F
100
AcDbEntity
  8
025-DWG
100
AcDbLine
 10
405.843955
 20
1493.495945
 30
0.0
 11
407.954745
 21
1489.390734
 31
0.0
  0
ARC
  5
90
100
AcDbEntity
  8
035-DWG
100
AcDbCircle
 10
410.869281
 20
1497.499792
 30
0.0
 40
6.0
100
AcDbArc
 50
180.0
 51
207.211017
  0
ARC
  5
91
100
AcDbEntity
  8
025-DWG
100
AcDbCircle
 10
410.869281
 20
1497.499792
 30
0.0
 40
6.3
100
AcDbArc
 50
180.0
 51
197.58164
  0
ARC
  5
92
100
AcDbEntity
  8
035-DWG
100
AcDbCircle
 10
405.516878
 20
1484.659709
 30
0.0
 40
3.0
100
AcDbArc
 50
301.756864
 51
11.114617
  0
LINE
  5
93
100
AcDbEntity
  8
025-DWG
100
AcDbLine
 10
408.174623
 20
1485.147406
 30
0.0
 11
407.189088
 21
1488.257664
 31
0.0
  0
ARC
  5
94
100
AcDbEntity
  8
025-DWG
100
AcDbCircle
 10
405.516878
 20
1484.659709
 30
0.0
 40
2.7
100
AcDbArc
 50
301.756864
 51
11.114617
  0
ARC
  5
95
100
AcDbEntity
  8
025-DWG
100
AcDbCircle
 10
394.369281
 20
1500.054176
 30
0.0
 40
21.7
100
AcDbArc
 50
297.23149
 51
305.343658
  0
LINE
  5
96
100
AcDbEntity
  8
025-DWG
100
AcDbLine
 10
408.983593
 20
1487.389759
 30
0.0
 11
409.438453
 21
1486.505115
 31
0.0
  0
ARC
  5
97
100
AcDbEntity
  8
DIM-LINE
100
AcDbCircle
 10
394.369281
 20
1500.31318
 30
0.0
 40
18.0
100
AcDbArc
 50
300.00384
 51
311.723133
  0
ARC
  5
98
100
AcDbEntity
  8
025-DWG
100
AcDbCircle
 10
394.369281
 20
1500.054176
 30
0.0
 40
24.7
100
AcDbArc
 50
299.049949
 51
301.756864
  0
LINE
  5
99
100
AcDbEntity
  8
035-DWG
100
AcDbLine
 10
408.460609
 20
1485.238026
 30
0.0
 11
405.149556
 21
1495.687405
 31
0.0
  0
LINE
  5
9A
100
AcDbEntity
  8
035-DWG
100
AcDbLine
 10
404.869281
 20
1512.353872
 30
0.0
 11
404.869281
 21
1497.499792
 31
0.0
  0
LWPOLYLINE
  5
9B
100
AcDbEntity
  8
035-DWG
100
AcDbPolyline
 90
        4
 70
     0
 43
0.0
 10
407.263816
 20
1503.87127
 42
-0.417384
 10
407.253348
 20
1503.587095
 42
-0.026016
 10
405.754929
 20
1502.347495
 42
-0.417384
 10
405.473826
 20
1502.390461
  0
LWPOLYLINE
  5
9C
100
AcDbEntity
  8
035-DWG
100
AcDbPolyline
 90
        6
 70
     0
 43
0.0
 10
407.60683
 20
1503.505997
 10
407.036791
 20
1504.113026
 42
-0.395928
 10
407.036791
 20
1504.386845
 10
408.325284
 20
1505.75895
 42
-0.395928
 10
408.598562
 20
1505.776143
 10
409.240186
 20
1505.245345
  0
LWPOLYLINE
  5
9D
100
AcDbEntity
  8
035-DWG
100
AcDbPolyline
 90
        4
 70
     0
 43
0.0
 10
404.869281
 20
1502.60413
 10
404.955105
 20
1502.658596
 42
-0.395928
 10
405.224074
 20
1502.607287
 10
405.713536
 20
1501.9336
  0
LINE
  5
9E
100
AcDbEntity
  8
025-DWG
100
AcDbLine
 10
384.169281
 20
1512.353872
 30
0.0
 11
384.169281
 21
1505.81686
 31
0.0
  0
LINE
  5
9F
100
AcDbEntity
  8
025-DWG
100
AcDbLine
 10
384.169281
 20
1499.896501
 30
0.0
 11
384.169281
 21
1497.499792
 31
0.0
  0
LINE
  5
A0
100
AcDbEntity
  8
025-DWG
100
AcDbLine
 10
382.540088
 20
1491.383952
 30
0.0
 11
383.874992
 21
1495.596786
 31
0.0
  0
LINE
  5
A1
100
AcDbEntity
  8
025-DWG
100
AcDbLine
 10
382.894606
 20
1493.495945
 30
0.0
 11
381.010947
 21
1489.832472
 31
0.0
  0
ARC
  5
A2
100
AcDbEntity
  8
025-DWG
100
AcDbCircle
 10
377.869281
 20
1497.499792
 30
0.0
 40
6.3
100
AcDbArc
 50
342.41836
 51
360.0
  0
ARC
  5
A3
100
AcDbEntity
  8
035-DWG
100
AcDbCircle
 10
377.869281
 20
1497.499792
 30
0.0
 40
6.0
100
AcDbArc
 50
332.788983
 51
360.0
  0
ARC
  5
A4
100
AcDbEntity
  8
025-DWG
100
AcDbCircle
 10
394.369281
 20
1500.054176
 30
0.0
 40
21.7
100
AcDbArc
 50
234.656342
 51
242.76851
  0
LINE
  5
A5
100
AcDbEntity
  8
025-DWG
100
AcDbLine
 10
380.563939
 20
1485.147406
 30
0.0
 11
381.549473
 21
1488.257664
 31
0.0
  0
ARC
  5
A6
100
AcDbEntity
  8
025-DWG
100
AcDbCircle
 10
383.221683
 20
1484.659709
 30
0.0
 40
2.7
100
AcDbArc
 50
168.885383
 51
238.243136
  0
ARC
  5
A7
100
AcDbEntity
  8
035-DWG
100
AcDbCircle
 10
383.221683
 20
1484.659709
 30
0.0
 40
3.0
100
AcDbArc
 50
168.885383
 51
238.243136
  0
LINE
  5
A8
100
AcDbEntity
  8
025-DWG
100
AcDbLine
 10
379.908968
 20
1487.689268
 30
0.0
 11
379.300108
 21
1486.505115
 31
0.0
  0
ARC
  5
A9
100
AcDbEntity
  8
025-DWG
100
AcDbCircle
 10
394.369281
 20
1500.054176
 30
0.0
 40
24.7
100
AcDbArc
 50
238.243136
 51
238.864823
  0
ARC
  5
AA
100
AcDbEntity
  8
035-DWG
100
AcDbCircle
 10
384.369281
 20
1483.898682
 30
0.0
 40
6.0
100
AcDbArc
 50
152.788983
 51
238.243136
  0
ARC
  5
AB
100
AcDbEntity
  8
025-DWG
100
AcDbCircle
 10
384.369281
 20
1483.898682
 30
0.0
 40
5.7
100
AcDbArc
 50
152.788983
 51
238.243136
  0
LINE
  5
AC
100
AcDbEntity
  8
035-DWG
100
AcDbLine
 10
380.277952
 20
1485.238026
 30
0.0
 11
383.589006
 21
1495.687405
 31
0.0
  0
LINE
  5
AD
100
AcDbEntity
  8
035-DWG
100
AcDbLine
 10
383.205251
 20
1494.756178
 30
0.0
 11
379.03331
 21
1486.642295
 31
0.0
  0
LINE
  5
AE
100
AcDbEntity
  8
035-DWG
100
AcDbLine
 10
383.869281
 20
1512.353872
 30
0.0
 11
383.869281
 21
1497.499792
 31
0.0
  0
LWPOLYLINE
  5
AF
100
AcDbEntity
  8
035-DWG
100
AcDbPolyline
 90
        6
 70
     0
 43
0.0
 10
376.027759
 20
1511.548572
 10
376.819725
 20
1511.805897
 42
-0.395928
 10
377.067484
 20
1511.689311
 10
377.760388
 20
1509.939234
 42
-0.395928
 10
377.659589
 20
1509.684644
 10
376.906119
 20
1509.330088
  0
LWPOLYLINE
  5
B0
100
AcDbEntity
  8
035-DWG
100
AcDbPolyline
 90
        4
 70
     0
 43
0.0
 10
378.518973
 20
1507.444185
 42
-0.417384
 10
378.241793
 20
1507.507717
 42
-0.026016
 10
377.304926
 20
1509.211872
 42
-0.417384
 10
377.399804
 20
1509.479944
  0
LWPOLYLINE
  5
B1
100
AcDbEntity
  8
035-DWG
100
AcDbPolyline
 90
        6
 70
     0
 43
0.0
 10
381.18655
 20
1503.454519
 10
381.756588
 20
1504.061548
 42
-0.395928
 10
382.029867
 20
1504.078741
 10
383.480169
 20
1502.878947
 42
-0.395928
 10
383.514488
 20
1502.607287
 10
383.025025
 20
1501.9336
  0
LWPOLYLINE
  5
B2
100
AcDbEntity
  8
035-DWG
100
AcDbPolyline
 90
        4
 70
     0
 43
0.0
 10
381.529564
 20
1503.819792
 42
-0.417384
 10
381.245292
 20
1503.812396
 42
-0.026016
 10
379.914052
 20
1505.230022
 42
-0.417384
 10
379.939283
 20
1505.513268
  0
LWPOLYLINE
  5
B3
100
AcDbEntity
  8
035-DWG
100
AcDbPolyline
 90
        6
 70
     0
 43
0.0
 10
378.095896
 20
1507.175692
 10
378.798987
 20
1507.621887
 42
-0.395928
 10
379.067956
 20
1507.570579
 10
380.174318
 20
1506.047803
 42
-0.395928
 10
380.139999
 20
1505.776143
 10
379.498375
 20
1505.245345
  0
LWPOLYLINE
  5
B4
100
AcDbEntity
  8
035-DWG
100
AcDbPolyline
 90
        3
 70
     0
 43
0.0
 10
383.869281
 20
1501.72048
 42
-0.007108
 10
383.431454
 20
1502.022134
 42
-0.417384
 10
383.385452
 20
1502.302756
  0
ARC
  5
B5
100
AcDbEntity
  8
DIM-LINE
100
AcDbCircle
 10
394.369281
 20
1500.31318
 30
0.0
 40
18.0
100
AcDbArc
 50
228.276867
 51
285.016781
  0
ARC
  5
B6
100
AcDbEntity
  8
DIM-LINE
100
AcDbCircle
 10
394.369281
 20
1508.460714
 30
0.0
 40
18.0
100
AcDbArc
 50
240.491879
 51
249.450998
  0
ARC
  5
B7
100
AcDbEntity
  8
035-DWG
100
AcDbCircle
 10
394.369281
 20
1500.054176
 30
0.0
 40
25.0
100
AcDbArc
 50
238.243136
 51
270.0
  0
ARC
  5
B8
100
AcDbEntity
  8
025-DWG
100
AcDbCircle
 10
394.369281
 20
1500.054176
 30
0.0
 40
24.7
100
AcDbArc
 50
247.485165
 51
270.0
  0
ARC
  5
B9
100
AcDbEntity
  8
035-DWG
100
AcDbCircle
 10
394.369281
 20
1500.054176
 30
0.0
 40
22.0
100
AcDbArc
 50
234.656342
 51
270.0
  0
LWPOLYLINE
  5
BA
100
AcDbEntity
  8
035-DWG
100
AcDbPolyline
 90
        4
 70
     0
 43
0.0
 10
412.257484
 20
1511.774934
 42
-0.417384
 10
412.385213
 20
1511.520866
 42
-0.026016
 10
411.66932
 20
1509.712728
 42
-0.417384
 10
411.402289
 20
1509.614957
  0
LWPOLYLINE
  5
BB
100
AcDbEntity
  8
035-DWG
100
AcDbPolyline
 90
        6
 70
     0
 43
0.0
 10
410.682959
 20
1507.239185
 10
409.979868
 20
1507.685381
 42
-0.395928
 10
409.911772
 20
1507.950597
 10
410.818555
 20
1509.600029
 42
-0.395928
 10
411.078972
 20
1509.684644
 10
411.832443
 20
1509.330088
  0
LWPOLYLINE
  5
BC
100
AcDbEntity
  8
035-DWG
100
AcDbPolyline
 90
        4
 70
     0
 43
0.0
 10
408.828307
 20
1529.557973
 42
-0.417384
 10
409.111263
 20
1529.529682
 42
-0.026016
 10
410.25433
 20
1527.956385
 42
-0.417384
 10
410.193799
 20
1527.678535
  0
LINE
  5
BD
100
AcDbEntity
  8
035-DWG
100
AcDbLine
 10
403.192947
 20
1529.047628
 30
0.0
 11
394.369281
 21
1529.047628
 31
0.0
  0
LWPOLYLINE
  5
BE
100
AcDbEntity
  8
035-DWG
100
AcDbPolyline
 90
        6
 70
     0
 43
0.0
 10
396.750612
 20
1536.697808
 10
396.646244
 20
1535.871651
 42
-0.395928
 10
396.435263
 20
1535.697112
 10
394.556723
 20
1535.8153
 42
-0.395928
 10
394.369281
 20
1536.014905
 10
394.369281
 20
1536.847628
  0
LWPOLYLINE
  5
BF
100
AcDbEntity
  8
035-DWG
100
AcDbPolyline
 90
        4
 70
     0
 43
0.0
 10
387.414848
 20
1535.01038
 42
-0.417384
 10
387.529193
 20
1535.270745
 42
-0.026016
 10
389.378715
 20
1535.871691
 42
-0.417384
 10
389.62426
 20
1535.728262
  0
POLYLINE
  5
C0
100
AcDbEntity
  8
DIM-LINE
100
AcDb2dPolyline
 66
     1
 10
0.0
 20
0.0
 30
0.0
  0
VERTEX
  5
C1
100
AcDbEntity
  8
DIM-LINE
100
AcDbVertex
100
AcDb2dVertex
 10
392.119245
 20
1523.049082
 30
0.0
 42
0.00529
  0
VERTEX
  5
C2
100
AcDbEntity
  8
DIM-LINE
100
AcDbVertex
100
AcDb2dVertex
 10
391.960499
 20
1524.225259
 30
0.0
 42
0.018284
  0
VERTEX
  5
C3
100
AcDbEntity
  8
DIM-LINE
100
AcDbVertex
100
AcDb2dVertex
 10
391.221071
 20
1528.258912
 30
0.0
  0
SEQEND
  5
C4
100
AcDbEntity
  8
DIM-LINE
  0
LWPOLYLINE
  5
C5
100
AcDbEntity
  8
035-DWG
100
AcDbPolyline
 90
        4
 70
     0
 43
0.0
 10
391.976144
 20
1536.191253
 42
-0.417384
 10
392.151647
 20
1536.415002
 42
-0.026016
 10
394.092512
 20
1536.53711
 42
-0.417384
 10
394.294674
 20
1536.337122
  0
LWPOLYLINE
  5
C6
100
AcDbEntity
  8
035-DWG
100
AcDbPolyline
 90
        6
 70
     0
 43
0.0
 10
391.913342
 20
1536.688382
 10
392.01771
 20
1535.862226
 42
-0.395928
 10
391.856763
 20
1535.640702
 10
390.007849
 20
1535.288002
 42
-0.395928
 10
389.776656
 20
1535.434722
 10
389.569566
 20
1536.241283
  0
POLYLINE
  5
C7
100
AcDbEntity
  8
DIM-LINE
100
AcDb2dPolyline
 66
     1
 10
0.0
 20
0.0
 30
0.0
  0
VERTEX
  5
C8
100
AcDbEntity
  8
DIM-LINE
100
AcDbVertex
100
AcDb2dVertex
 10
400.468482
 20
1519.690984
 30
0.0
 42
-0.008603
  0
VERTEX
  5
C9
100
AcDbEntity
  8
DIM-LINE
100
AcDbVertex
100
AcDb2dVertex
 10
400.990229
 20
1520.674217
 30
0.0
 42
-0.029301
  0
VERTEX
  5
CA
100
AcDbEntity
  8
DIM-LINE
100
AcDbVertex
100
AcDb2dVertex
 10
401.992827
 20
1522.260484
 30
0.0
 42
-0.091649
  0
VERTEX
  5
CB
100
AcDbEntity
  8
DIM-LINE
100
AcDbVertex
100
AcDb2dVertex
 10
403.277504
 20
1523.495695
 30
0.0
 42
-0.05982
  0
VERTEX
  5
CC
100
AcDbEntity
  8
DIM-LINE
100
AcDbVertex
100
AcDb2dVertex
 10
405.708203
 20
1524.710547
 30
0.0
  0
SEQEND
  5
CD
100
AcDbEntity
  8
DIM-LINE
  0
POLYLINE
  5
CE
100
AcDbEntity
  8
DIM-LINE
100
AcDb2dPolyline
 66
     1
 10
0.0
 20
0.0
 30
0.0
  0
VERTEX
  5
CF
100
AcDbEntity
  8
DIM-LINE
100
AcDbVertex
100
AcDb2dVertex
 10
396.619317
 20
1523.049082
 30
0.0
 42
-0.00529
  0
VERTEX
  5
D0
100
AcDbEntity
  8
DIM-LINE
100
AcDbVertex
100
AcDb2dVertex
 10
396.778063
 20
1524.225259
 30
0.0
 42
-0.018284
  0
VERTEX
  5
D1
100
AcDbEntity
  8
DIM-LINE
100
AcDbVertex
100
AcDb2dVertex
 10
397.51749
 20
1528.258912
 30
0.0
  0
SEQEND
  5
D2
100
AcDbEntity
  8
DIM-LINE
  0
LWPOLYLINE
  5
D3
100
AcDbEntity
  8
035-DWG
100
AcDbPolyline
 90
        4
 70
     0
 43
0.0
 10
396.68781
 20
1536.200678
 42
-0.417384
 10
396.913443
 20
1536.373751
 42
-0.026016
 10
398.823699
 20
1536.009351
 42
-0.417384
 10
398.969775
 20
1535.76537
  0
LWPOLYLINE
  5
D4
100
AcDbEntity
  8
035-DWG
100
AcDbPolyline
 90
        4
 70
     0
 43
0.0
 10
401.253794
 20
1535.038063
 42
-0.417384
 10
401.51538
 20
1535.149587
 42
-0.026016
 10
403.274999
 20
1534.321573
 42
-0.417384
 10
403.35581
 20
1534.048929
  0
LWPOLYLINE
  5
D5
100
AcDbEntity
  8
035-DWG
100
AcDbPolyline
 90
        4
 70
     0
 43
0.0
 10
405.387198
 20
1532.77646
 42
-0.417384
 10
405.668301
 20
1532.819426
 42
-0.026016
 10
407.16672
 20
1531.579826
 42
-0.417384
 10
407.177188
 20
1531.295652
  0
LWPOLYLINE
  5
D6
100
AcDbEntity
  8
035-DWG
100
AcDbPolyline
 90
        6
 70
     0
 43
0.0
 10
405.681727
 20
1533.181843
 10
405.192264
 20
1532.508156
 42
-0.395928
 10
404.923295
 20
1532.456847
 10
403.334055
 20
1533.46541
 42
-0.395928
 10
403.265959
 20
1533.730626
 10
403.667127
 20
1534.460347
  0
LWPOLYLINE
  5
D7
100
AcDbEntity
  8
035-DWG
100
AcDbPolyline
 90
        6
 70
     0
 43
0.0
 10
409.214396
 20
1529.877375
 10
408.572772
 20
1529.346577
 42
-0.395928
 10
408.299494
 20
1529.36377
 10
407.011002
 20
1530.735875
 42
-0.395928
 10
407.011002
 20
1531.009694
 10
407.58104
 20
1531.616723
  0
LWPOLYLINE
  5
D8
100
AcDbEntity
  8
035-DWG
100
AcDbPolyline
 90
        6
 70
     0
 43
0.0
 10
401.438254
 20
1535.503956
 10
401.131708
 20
1534.72971
 42
-0.395928
 10
400.88395
 20
1534.613124
 10
399.093819
 20
1535.194772
 42
-0.395928
 10
398.961906
 20
1535.434722
 10
399.168995
 20
1536.241283
  0
POLYLINE
  5
D9
100
AcDbEntity
  8
025-DWG
100
AcDb2dPolyline
 66
     1
 10
0.0
 20
0.0
 30
0.0
  0
VERTEX
  5
DA
100
AcDbEntity
  8
025-DWG
100
AcDbVertex
100
AcDb2dVertex
 10
405.729582
 20
1517.961764
 30
0.0
 42
-0.015711
  0
VERTEX
  5
DB
100
AcDbEntity
  8
025-DWG
100
AcDbVertex
100
AcDb2dVertex
 10
406.049175
 20
1518.522354
 30
0.0
 42
-0.044824
  0
VERTEX
  5
DC
100
AcDbEntity
  8
025-DWG
100
AcDbVertex
100
AcDb2dVertex
 10
407.145477
 20
1519.997408
 30
0.0
 42
-0.044824
  0
SEQEND
  5
DD
100
AcDbEntity
  8
025-DWG
  0
LWPOLYLINE
  5
DE
100
AcDbEntity
  8
035-DWG
100
AcDbPolyline
 90
        4
 70
     0
 43
0.0
 10
375.89862
 20
1521.032817
 42
-0.417384
 10
375.740056
 20
1521.268872
 42
-0.026016
 10
376.223684
 20
1523.152478
 42
-0.417384
 10
376.476355
 20
1523.282946
  0
LWPOLYLINE
  5
DF
100
AcDbEntity
  8
035-DWG
100
AcDbPolyline
 90
        6
 70
     0
 43
0.0
 10
375.406415
 20
1521.12671
 10
376.224388
 20
1520.970674
 42
-0.395928
 10
376.385335
 20
1520.74915
 10
376.149426
 20
1518.881737
 42
-0.395928
 10
375.938445
 20
1518.707198
 10
375.107365
 20
1518.759485
  0
POLYLINE
  5
E0
100
AcDbEntity
  8
DIM-LINE
100
AcDb2dPolyline
 66
     1
 10
0.0
 20
0.0
 30
0.0
  0
VERTEX
  5
E1
100
AcDbEntity
  8
DIM-LINE
100
AcDbVertex
100
AcDb2dVertex
 10
386.348211
 20
1522.745812
 30
0.0
 42
0.059449
  0
VERTEX
  5
E2
100
AcDbEntity
  8
DIM-LINE
100
AcDbVertex
100
AcDb2dVertex
 10
385.461057
 20
1523.495695
 30
0.0
 42
0.05982
  0
VERTEX
  5
E3
100
AcDbEntity
  8
DIM-LINE
100
AcDbVertex
100
AcDb2dVertex
 10
383.030358
 20
1524.710547
 30
0.0
  0
SEQEND
  5
E4
100
AcDbEntity
  8
DIM-LINE
  0
LWPOLYLINE
  5
E5
100
AcDbEntity
  8
035-DWG
100
AcDbPolyline
 90
        6
 70
     0
 43
0.0
 10
382.995997
 20
1533.137642
 10
383.485459
 20
1532.463955
 42
-0.395928
 10
383.45114
 20
1532.192295
 10
382.000838
 20
1530.992501
 42
-0.395928
 10
381.72756
 20
1531.009694
 10
381.157522
 20
1531.616723
  0
LWPOLYLINE
  5
E6
100
AcDbEntity
  8
035-DWG
100
AcDbPolyline
 90
        4
 70
     0
 43
0.0
 10
377.345641
 20
1525.51679
 42
-0.417384
 10
377.250763
 20
1525.784863
 42
-0.026016
 10
378.18763
 20
1527.489018
 42
-0.417384
 10
378.46481
 20
1527.55255
  0
LWPOLYLINE
  5
E7
100
AcDbEntity
  8
035-DWG
100
AcDbPolyline
 90
        6
 70
     0
 43
0.0
 10
379.476231
 20
1529.819432
 10
380.117855
 20
1529.288634
 42
-0.395928
 10
380.152173
 20
1529.016975
 10
379.045812
 20
1527.494199
 42
-0.395928
 10
378.776843
 20
1527.44289
 10
378.073752
 20
1527.889085
  0
LWPOLYLINE
  5
E8
100
AcDbEntity
  8
035-DWG
100
AcDbPolyline
 90
        4
 70
     0
 43
0.0
 10
379.86232
 20
1529.500031
 42
-0.417384
 10
379.83709
 20
1529.783277
 42
-0.026016
 10
381.16833
 20
1531.200903
 42
-0.417384
 10
381.452601
 20
1531.193508
  0
LWPOLYLINE
  5
E9
100
AcDbEntity
  8
035-DWG
100
AcDbPolyline
 90
        6
 70
     0
 43
0.0
 10
376.89225
 20
1525.73014
 10
377.64572
 20
1525.375584
 42
-0.395928
 10
377.746519
 20
1525.120993
 10
377.053615
 20
1523.370917
 42
-0.395928
 10
376.805857
 20
1523.254331
 10
376.01389
 20
1523.511656
  0
LWPOLYLINE
  5
EA
100
AcDbEntity
  8
035-DWG
100
AcDbPolyline
 90
        4
 70
     0
 43
0.0
 10
383.290525
 20
1532.732259
 42
-0.417384
 10
383.336527
 20
1533.01288
 42
-0.026016
 10
384.978493
 20
1534.054904
 42
-0.417384
 10
385.251994
 20
1533.977045
  0
LWPOLYLINE
  5
EB
100
AcDbEntity
  8
035-DWG
100
AcDbPolyline
 90
        6
 70
     0
 43
0.0
 10
375.112087
 20
1516.298394
 10
375.943166
 20
1516.350681
 42
-0.395928
 10
376.154148
 20
1516.176142
 10
376.390057
 20
1514.30873
 42
-0.395928
 10
376.22911
 20
1514.087206
 10
375.411137
 20
1513.931169
  0
POLYLINE
  5
EC
100
AcDbEntity
  8
025-DWG
100
AcDb2dPolyline
 66
     1
 10
0.0
 20
0.0
 30
0.0
  0
VERTEX
  5
ED
100
AcDbEntity
  8
025-DWG
100
AcDbVertex
100
AcDb2dVertex
 10
383.008979
 20
1517.961764
 30
0.0
 42
0.015711
  0
VERTEX
  5
EE
100
AcDbEntity
  8
025-DWG
100
AcDbVertex
100
AcDb2dVertex
 10
382.689386
 20
1518.522354
 30
0.0
 42
0.044824
  0
VERTEX
  5
EF
100
AcDbEntity
  8
025-DWG
100
AcDbVertex
100
AcDb2dVertex
 10
381.593084
 20
1519.997408
 30
0.0
 42
0.044824
  0
SEQEND
  5
F0
100
AcDbEntity
  8
025-DWG
  0
LWPOLYLINE
  5
F1
100
AcDbEntity
  8
035-DWG
100
AcDbPolyline
 90
        4
 70
     0
 43
0.0
 10
375.612179
 20
1516.329857
 42
-0.417384
 10
375.399891
 20
1516.519063
 42
-0.026016
 10
375.399891
 20
1518.463765
 42
-0.417384
 10
375.612179
 20
1518.652971
  0
LWPOLYLINE
  5
F2
100
AcDbEntity
  8
035-DWG
100
AcDbPolyline
 90
        6
 70
     0
 43
0.0
 10
387.230388
 20
1535.476273
 10
387.536934
 20
1534.702027
 42
-0.395928
 10
387.436134
 20
1534.447437
 10
385.733019
 20
1533.646012
 42
-0.395928
 10
385.472602
 20
1533.730626
 10
385.071435
 20
1534.460347
  0
LINE
  5
F3
100
AcDbEntity
  8
035-DWG
100
AcDbLine
 10
385.545614
 20
1529.047628
 30
0.0
 11
394.369281
 21
1529.047628
 31
0.0
  0
LWPOLYLINE
  5
F4
100
AcDbEntity
  8
035-DWG
100
AcDbPolyline
 90
        4
 70
     0
 43
0.0
 10
412.82585
 20
1521.106685
 42
-0.417384
 10
413.060177
 20
1520.945578
 42
-0.026016
 10
413.303913
 20
1519.016211
 42
-0.417384
 10
413.117013
 20
1518.80189
  0
LWPOLYLINE
  5
F5
100
AcDbEntity
  8
035-DWG
100
AcDbPolyline
 90
        4
 70
     0
 43
0.0
 10
413.131104
 20
1516.404909
 42
-0.417384
 10
413.318004
 20
1516.190588
 42
-0.026016
 10
413.074268
 20
1514.261221
 42
-0.417384
 10
412.839941
 20
1514.100114
  0
LINE
  5
F6
100
AcDbEntity
  8
025-DWG
100
AcDbLine
 10
409.919986
 20
1528.978532
 30
0.0
 11
409.919986
 21
1530.091668
 31
0.0
  0
LWPOLYLINE
  5
F7
100
AcDbEntity
  8
035-DWG
100
AcDbPolyline
 90
        4
 70
     0
 43
0.0
 10
411.360901
 20
1525.584833
 42
-0.417384
 10
411.627933
 20
1525.487062
 42
-0.026016
 10
412.343825
 20
1523.678924
 42
-0.417384
 10
412.216096
 20
1523.424857
  0
LWPOLYLINE
  5
F8
100
AcDbEntity
  8
035-DWG
100
AcDbPolyline
 90
        6
 70
     0
 43
0.0
 10
411.814293
 20
1525.798183
 10
411.060823
 20
1525.443627
 42
-0.395928
 10
410.800406
 20
1525.528241
 10
409.893622
 20
1527.177674
 42
-0.395928
 10
409.961718
 20
1527.44289
 10
410.66481
 20
1527.889085
  0
LWPOLYLINE
  5
F9
100
AcDbEntity
  8
035-DWG
100
AcDbPolyline
 90
        6
 70
     0
 43
0.0
 10
413.318055
 20
1521.200578
 10
412.500082
 20
1521.044542
 42
-0.395928
 10
412.268889
 20
1521.191261
 10
411.800792
 20
1523.014381
 42
-0.395928
 10
411.932705
 20
1523.254331
 10
412.724671
 20
1523.511656
  0
LWPOLYLINE
  5
FA
100
AcDbEntity
  8
035-DWG
100
AcDbPolyline
 90
        6
 70
     0
 43
0.0
 10
413.631197
 20
1516.373445
 10
412.800117
 20
1516.425733
 42
-0.395928
 10
412.612675
 20
1516.625338
 10
412.612675
 20
1518.507593
 42
-0.395928
 10
412.800117
 20
1518.707198
 10
413.631197
 20
1518.759485
  0
LWPOLYLINE
  5
FB
100
AcDbEntity
  8
025-DWG
  6
CONTINUOUS
100
AcDbPolyline
 90
       12
 70
   128
 43
0.0
 10
163.326201
 20
1850.721072
 10
161.988337
 20
1842.660616
 10
160.971429
 20
1834.505864
 10
160.284306
 20
1826.292599
 10
159.983819
 20
1819.92506
 10
159.883949
 20
1813.539536
 10
159.984694
 20
1807.154037
 10
160.286051
 20
1800.786577
 10
160.768163
 20
1794.64773
 10
161.434853
 20
1788.541685
 10
162.290062
 20
1782.437138
 10
163.326201
 20
1776.385739
  0
LWPOLYLINE
  5
FC
100
AcDbEntity
  8
025-DWG
  6
CONTINUOUS
100
AcDbPolyline
 90
       12
 70
   128
 43
0.0
 10
165.998742
 20
1776.445641
 10
164.677746
 20
1784.498332
 10
163.673907
 20
1792.645155
 10
162.995934
 20
1800.850363
 10
162.69977
 20
1807.211608
 10
162.601828
 20
1813.590776
 10
162.702102
 20
1819.969875
 10
163.000585
 20
1826.330909
 10
163.476561
 20
1832.451977
 10
164.134218
 20
1838.540379
 10
164.97743
 20
1844.627211
 10
165.998742
 20
1850.66117
  0
LWPOLYLINE
  5
FD
100
AcDbEntity
  8
035-DWG
  6
CONTINUOUS
100
AcDbPolyline
 90
       15
 70
   128
 43
0.0
 10
126.947404
 20
1861.696511
 10
125.683744
 20
1855.042595
 10
124.601907
 20
1848.313204
 10
123.706984
 20
1841.52447
 10
123.004066
 20
1834.692524
 10
122.485015
 20
1827.622971
 10
122.174094
 20
1820.520034
 10
122.072521
 20
1813.403919
 10
122.181515
 20
1806.294832
 10
122.487547
 20
1799.433435
 10
122.988512
 20
1792.594014
 10
123.681684
 20
1785.794307
 10
124.580346
 20
1778.936411
 10
125.670807
 20
1772.136341
 10
126.947404
 20
1765.4103
  0
LWPOLYLINE
  5
FE
100
AcDbEntity
  8
025-DWG
  6
CONTINUOUS
100
AcDbPolyline
 90
       12
 70
   128
 43
0.0
 10
140.867574
 20
1778.263117
 10
139.942429
 20
1784.657087
 10
139.199327
 20
1791.10005
 10
138.63848
 20
1797.626265
 10
138.267853
 20
1804.180568
 10
138.087614
 20
1810.895617
 10
138.108599
 20
1817.615615
 10
138.333434
 20
1824.378605
 10
138.761359
 20
1831.121237
 10
139.308546
 20
1837.064671
 10
140.011621
 20
1842.976208
 10
140.867574
 20
1848.843695
  0
LWPOLYLINE
  5
FF
100
AcDbEntity
  8
025-DWG
  6
CONTINUOUS
100
AcDbPolyline
 90
       12
 70
   128
 43
0.0
 10
139.96624
 20
1849.149469
 10
139.033387
 20
1842.669956
 10
138.285094
 20
1836.141065
 10
137.721571
 20
1829.52808
 10
137.350825
 20
1822.886928
 10
137.173102
 20
1816.083208
 10
137.199249
 20
1809.274779
 10
137.431937
 20
1802.423122
 10
137.870344
 20
1795.592384
 10
138.417595
 20
1789.678872
 10
139.117185
 20
1783.796636
 10
139.96624
 20
1777.957343
  0
LWPOLYLINE
  5
100
100
AcDbEntity
  8
025-DWG
  6
CONTINUOUS
100
AcDbPolyline
 90
       15
 70
   128
 43
0.0
 10
128.012484
 20
1765.410194
 10
126.754547
 20
1772.064119
 10
125.677609
 20
1778.793519
 10
124.786738
 20
1785.582262
 10
124.087003
 20
1792.414217
 10
123.570301
 20
1799.483779
 10
123.260787
 20
1806.586726
 10
123.159674
 20
1813.70285
 10
123.268173
 20
1820.811948
 10
123.572818
 20
1827.673367
 10
124.071514
 20
1834.512812
 10
124.761548
 20
1841.312541
 10
125.656141
 20
1848.170461
 10
126.741666
 20
1854.970553
 10
128.012484
 20
1861.696617
  0
LINE
  5
101
100
AcDbEntity
  8
025-DWG
  6
CONTINUOUS
100
AcDbLine
 10
142.61509
 20
1775.435641
 30
0.0
 11
182.638669
 21
1771.211365
 31
0.0
  0
LINE
  5
102
100
AcDbEntity
  8
025-DWG
  6
CONTINUOUS
100
AcDbLine
 10
182.401358
 20
1772.409224
 30
0.0
 11
142.633569
 21
1776.588987
 31
0.0
  0
LWPOLYLINE
  5
103
100
AcDbEntity
  8
025-DWG
  6
CONTINUOUS
100
AcDbPolyline
 90
        3
 70
   128
 43
0.0
 10
187.495178
 20
1751.790291
 10
157.44475
 20
1758.204068
 10
129.170094
 20
1764.238823
  0
LINE
  5
104
100
AcDbEntity
  8
035-DWG
  6
CONTINUOUS
100
AcDbLine
 10
128.876902
 20
1763.466149
 30
0.0
 11
187.748218
 21
1750.953618
 31
0.0
  0
LWPOLYLINE
  5
105
100
AcDbEntity
  8
025-DWG
  6
CONTINUOUS
100
AcDbPolyline
 90
        9
 70
   128
 43
0.0
 10
140.867574
 20
1778.263117
 10
140.854793
 20
1778.230633
 10
140.807433
 20
1778.193716
 10
140.727176
 20
1778.153676
 10
140.616868
 20
1778.111932
 10
140.480422
 20
1778.069965
 10
140.322679
 20
1778.029265
 10
140.149234
 20
1777.991275
 10
139.96624
 20
1777.957343
  0
LWPOLYLINE
  5
106
100
AcDbEntity
  8
035-DWG
  6
CONTINUOUS
100
AcDbPolyline
 90
        5
 70
   128
 43
0.0
 10
126.947404
 20
1765.4103
 10
127.255072
 20
1764.621692
 10
127.808771
 20
1763.980552
 10
128.545416
 20
1763.560907
 10
128.876902
 20
1763.466149
  0
LWPOLYLINE
  5
107
100
AcDbEntity
  8
025-DWG
  6
CONTINUOUS
100
AcDbPolyline
 90
        9
 70
   128
 43
0.0
 10
129.170094
 20
1764.238823
 10
129.129606
 20
1764.076922
 10
129.087775
 20
1763.926029
 10
129.045855
 20
1763.790665
 10
129.005102
 20
1763.674884
 10
128.966737
 20
1763.582158
 10
128.931909
 20
1763.515262
 10
128.901662
 20
1763.476203
 10
128.876902
 20
1763.466149
  0
LWPOLYLINE
  5
108
100
AcDbEntity
  8
025-DWG
  6
CONTINUOUS
100
AcDbPolyline
 90
        5
 70
   128
 43
0.0
 10
129.170094
 20
1764.238823
 10
128.700274
 20
1764.426606
 10
128.32247
 20
1764.756608
 10
128.071363
 20
1765.200082
 10
128.012484
 20
1765.410194
  0
LWPOLYLINE
  5
109
100
AcDbEntity
  8
025-DWG
  6
CONTINUOUS
100
AcDbPolyline
 90
        9
 70
   128
 43
0.0
 10
128.012484
 20
1765.410194
 10
127.814965
 20
1765.372297
 10
127.621997
 20
1765.344077
 10
127.441409
 20
1765.32668
 10
127.280529
 20
1765.320812
 10
127.145885
 20
1765.32671
 10
127.042941
 20
1765.344135
 10
126.975873
 20
1765.37238
 10
126.947404
 20
1765.4103
  0
LWPOLYLINE
  5
10A
100
AcDbEntity
  8
025-DWG
  6
CONTINUOUS
100
AcDbPolyline
 90
        9
 70
   128
 43
0.0
 10
142.633569
 20
1776.588987
 10
142.65309
 20
1776.563776
 10
142.666897
 20
1776.493916
 10
142.674354
 20
1776.382623
 10
142.675118
 20
1776.235024
 10
142.669152
 20
1776.057919
 10
142.656732
 20
1775.859465
 10
142.638431
 20
1775.648805
 10
142.61509
 20
1775.435641
  0
LWPOLYLINE
  5
10B
100
AcDbEntity
  8
025-DWG
  6
CONTINUOUS
100
AcDbPolyline
 90
        5
 70
   128
 43
0.0
 10
139.96624
 20
1777.957343
 10
140.297772
 20
1776.984172
 10
140.936353
 20
1776.179432
 10
141.81053
 20
1775.63621
 10
142.61509
 20
1775.435641
  0
LWPOLYLINE
  5
10C
100
AcDbEntity
  8
025-DWG
  6
CONTINUOUS
100
AcDbPolyline
 90
        5
 70
   128
 43
0.0
 10
142.633569
 20
1776.588987
 10
141.981575
 20
1776.772874
 10
141.434188
 20
1777.158065
 10
141.038657
 20
1777.714494
 10
140.867574
 20
1778.263117
  0
LWPOLYLINE
  5
10D
100
AcDbEntity
  8
025-DWG
  6
CONTINUOUS
100
AcDbPolyline
 90
        9
 70
   128
 43
0.0
 10
165.998742
 20
1776.445641
 10
165.499898
 20
1776.356552
 10
165.012737
 20
1776.287574
 10
164.557314
 20
1776.241546
 10
164.152381
 20
1776.220363
 10
163.81461
 20
1776.224899
 10
163.557905
 20
1776.254965
 10
163.392837
 20
1776.309324
 10
163.326201
 20
1776.385739
  0
LWPOLYLINE
  5
10E
100
AcDbEntity
  8
025-DWG
  6
CONTINUOUS
100
AcDbPolyline
 90
        4
 70
   128
 43
0.0
 10
163.326201
 20
1776.385739
 10
163.478867
 20
1775.577962
 10
163.639466
 20
1774.747008
 10
163.713247
 20
1774.373424
  0
LWPOLYLINE
  5
10F
100
AcDbEntity
  8
025-DWG
  6
CONTINUOUS
100
AcDbPolyline
 90
        7
 70
   128
 43
0.0
 10
166.858816
 20
1774.780891
 10
166.707551
 20
1775.091795
 10
166.534505
 20
1775.43421
 10
166.357012
 20
1775.776102
 10
166.170457
 20
1776.127864
 10
166.084737
 20
1776.287202
 10
165.998742
 20
1776.445641
  0
LWPOLYLINE
  5
110
100
AcDbEntity
  8
025-DWG
  6
CONTINUOUS
100
AcDbPolyline
 90
        5
 70
   128
 43
0.0
 10
166.755094
 20
1774.083924
 10
166.882834
 20
1774.254846
 10
166.930913
 20
1774.477059
 10
166.89352
 20
1774.696131
 10
166.858816
 20
1774.780891
  0
LWPOLYLINE
  5
111
100
AcDbEntity
  8
025-DWG
  6
CONTINUOUS
100
AcDbPolyline
 90
        3
 70
   128
 43
0.0
 10
166.755094
 20
1774.083924
 10
166.306078
 20
1774.100994
 10
166.305515
 20
1774.100965
  0
LWPOLYLINE
  5
112
100
AcDbEntity
  8
025-DWG
  6
CONTINUOUS
100
AcDbPolyline
 90
        5
 70
   128
 43
0.0
 10
166.858816
 20
1774.780891
 10
166.2922
 20
1774.719028
 10
165.736251
 20
1774.578443
 10
165.220322
 20
1774.366558
 10
164.989394
 20
1774.239295
  0
LINE
  5
113
100
AcDbEntity
  8
025-DWG
  6
CONTINUOUS
100
AcDbLine
 10
181.951891
 20
1774.783232
 30
0.0
 11
165.998742
 21
1776.445641
 31
0.0
  0
LINE
  5
114
100
AcDbEntity
  8
025-DWG
  6
CONTINUOUS
100
AcDbLine
 10
182.638669
 20
1855.895446
 30
0.0
 11
142.61509
 21
1851.67117
 31
0.0
  0
LINE
  5
115
100
AcDbEntity
  8
025-DWG
  6
CONTINUOUS
100
AcDbLine
 10
142.633569
 20
1850.517824
 30
0.0
 11
182.401358
 21
1854.697587
 31
0.0
  0
LWPOLYLINE
  5
116
100
AcDbEntity
  8
025-DWG
  6
CONTINUOUS
100
AcDbPolyline
 90
        3
 70
   128
 43
0.0
 10
129.170094
 20
1862.867988
 10
157.44475
 20
1868.902743
 10
187.495178
 20
1875.316521
  0
LINE
  5
117
100
AcDbEntity
  8
035-DWG
  6
CONTINUOUS
100
AcDbLine
 10
187.748218
 20
1876.153193
 30
0.0
 11
128.876902
 21
1863.640662
 31
0.0
  0
LWPOLYLINE
  5
118
100
AcDbEntity
  8
025-DWG
  6
CONTINUOUS
100
AcDbPolyline
 90
        9
 70
   128
 43
0.0
 10
140.867574
 20
1848.843695
 10
140.854793
 20
1848.876178
 10
140.807433
 20
1848.913095
 10
140.727176
 20
1848.953136
 10
140.616868
 20
1848.994879
 10
140.480422
 20
1849.036846
 10
140.322679
 20
1849.077546
 10
140.149234
 20
1849.115536
 10
139.96624
 20
1849.149469
  0
LWPOLYLINE
  5
119
100
AcDbEntity
  8
035-DWG
  6
CONTINUOUS
100
AcDbPolyline
 90
        5
 70
   128
 43
0.0
 10
128.876902
 20
1863.640662
 10
128.095145
 20
1863.329787
 10
127.46246
 20
1862.779247
 10
127.046075
 20
1862.046653
 10
126.947404
 20
1861.696511
  0
LWPOLYLINE
  5
11A
100
AcDbEntity
  8
025-DWG
  6
CONTINUOUS
100
AcDbPolyline
 90
        5
 70
   128
 43
0.0
 10
128.012484
 20
1861.696617
 10
128.201558
 20
1862.179232
 10
128.543879
 20
1862.569991
 10
128.998445
 20
1862.820504
 10
129.170094
 20
1862.867988
  0
LWPOLYLINE
  5
11B
100
AcDbEntity
  8
025-DWG
  6
CONTINUOUS
100
AcDbPolyline
 90
        9
 70
   128
 43
0.0
 10
128.012484
 20
1861.696617
 10
127.814965
 20
1861.734514
 10
127.621997
 20
1861.762734
 10
127.441409
 20
1861.780131
 10
127.280529
 20
1861.786
 10
127.145885
 20
1861.780102
 10
127.042941
 20
1861.762676
 10
126.975873
 20
1861.734431
 10
126.947404
 20
1861.696511
  0
LWPOLYLINE
  5
11C
100
AcDbEntity
  8
025-DWG
  6
CONTINUOUS
100
AcDbPolyline
 90
        9
 70
   128
 43
0.0
 10
129.170094
 20
1862.867988
 10
129.129606
 20
1863.029889
 10
129.087775
 20
1863.180782
 10
129.045855
 20
1863.316146
 10
129.005102
 20
1863.431927
 10
128.966737
 20
1863.524654
 10
128.931909
 20
1863.591549
 10
128.901662
 20
1863.630609
 10
128.876902
 20
1863.640662
  0
LWPOLYLINE
  5
11D
100
AcDbEntity
  8
025-DWG
  6
CONTINUOUS
100
AcDbPolyline
 90
        9
 70
   128
 43
0.0
 10
142.633569
 20
1850.517824
 10
142.65309
 20
1850.543035
 10
142.666897
 20
1850.612896
 10
142.674354
 20
1850.724189
 10
142.675118
 20
1850.871787
 10
142.669152
 20
1851.048892
 10
142.656732
 20
1851.247346
 10
142.638431
 20
1851.458006
 10
142.61509
 20
1851.67117
  0
LWPOLYLINE
  5
11E
100
AcDbEntity
  8
025-DWG
  6
CONTINUOUS
100
AcDbPolyline
 90
        5
 70
   128
 43
0.0
 10
142.61509
 20
1851.67117
 10
141.644017
 20
1851.397481
 10
140.822974
 20
1850.820838
 10
140.232479
 20
1849.995923
 10
139.96624
 20
1849.149469
  0
LWPOLYLINE
  5
11F
100
AcDbEntity
  8
025-DWG
  6
CONTINUOUS
100
AcDbPolyline
 90
        5
 70
   128
 43
0.0
 10
140.867574
 20
1848.843695
 10
141.093645
 20
1849.498865
 10
141.528854
 20
1850.036761
 10
142.127868
 20
1850.396699
 10
142.633569
 20
1850.517824
  0
LWPOLYLINE
  5
120
100
AcDbEntity
  8
025-DWG
  6
CONTINUOUS
100
AcDbPolyline
 90
        4
 70
   128
 43
0.0
 10
163.713175
 20
1852.73338
 10
163.613913
 20
1852.22883
 10
163.460822
 20
1851.434299
 10
163.326201
 20
1850.721072
  0
LWPOLYLINE
  5
121
100
AcDbEntity
  8
025-DWG
  6
CONTINUOUS
100
AcDbPolyline
 90
        9
 70
   128
 43
0.0
 10
163.326201
 20
1850.721072
 10
163.392837
 20
1850.797487
 10
163.557905
 20
1850.851846
 10
163.81461
 20
1850.881912
 10
164.152381
 20
1850.886448
 10
164.557314
 20
1850.865265
 10
165.012737
 20
1850.819238
 10
165.499898
 20
1850.750259
 10
165.998742
 20
1850.66117
  0
LWPOLYLINE
  5
122
100
AcDbEntity
  8
025-DWG
  6
CONTINUOUS
100
AcDbPolyline
 90
        5
 70
   128
 43
0.0
 10
165.998742
 20
1850.66117
 10
166.235557
 20
1851.100902
 10
166.475511
 20
1851.558077
 10
166.673986
 20
1851.94771
 10
166.858816
 20
1852.325921
  0
LWPOLYLINE
  5
123
100
AcDbEntity
  8
025-DWG
  6
CONTINUOUS
100
AcDbPolyline
 90
        5
 70
   128
 43
0.0
 10
166.858816
 20
1852.325921
 10
166.928615
 20
1852.57206
 10
166.911924
 20
1852.770234
 10
166.790288
 20
1852.991449
 10
166.755094
 20
1853.022887
  0
LINE
  5
124
100
AcDbEntity
  8
025-DWG
  6
CONTINUOUS
100
AcDbLine
 10
166.305515
 20
1853.005846
 30
0.0
 11
166.755094
 21
1853.022887
 31
0.0
  0
LWPOLYLINE
  5
125
100
AcDbEntity
  8
025-DWG
  6
CONTINUOUS
100
AcDbPolyline
 90
        5
 70
   128
 43
0.0
 10
164.989394
 20
1852.867516
 10
165.220322
 20
1852.740254
 10
165.736251
 20
1852.528369
 10
166.2922
 20
1852.387783
 10
166.858816
 20
1852.325921
  0
LINE
  5
126
100
AcDbEntity
  8
025-DWG
  6
CONTINUOUS
100
AcDbLine
 10
165.998742
 20
1850.66117
 30
0.0
 11
181.951891
 21
1852.323579
 31
0.0
  0
CIRCLE
  5
127
100
AcDbEntity
  8
025-DWG
100
AcDbCircle
 10
393.63464
 20
1813.35196
 30
0.0
 40
83.0
  0
CIRCLE
  5
128
100
AcDbEntity
  8
025-DWG
100
AcDbCircle
 10
393.63464
 20
1813.35196
 30
0.0
 40
87.0
  0
CIRCLE
  5
129
100
AcDbEntity
  8
025-DWG
100
AcDbCircle
 10
393.63464
 20
1813.35196
 30
0.0
 40
114.0
  0
POLYLINE
  5
12A
100
AcDbEntity
  8
035-DWG
100
AcDb2dPolyline
 66
     1
 10
0.0
 20
0.0
 30
0.0
 70
     2
  0
VERTEX
  5
12B
100
AcDbEntity
  8
035-DWG
100
AcDbVertex
100
AcDb2dVertex
 10
414.248019
 20
1592.054238
 30
0.0
 42
-0.03058
  0
VERTEX
  5
12C
100
AcDbEntity
  8
035-DWG
100
AcDbVertex
100
AcDb2dVertex
 10
411.464977
 20
1589.218161
 30
0.0
 42
-0.049321
 70
     1
  0
VERTEX
  5
12D
100
AcDbEntity
  8
035-DWG
100
AcDbVertex
100
AcDb2dVertex
 10
409.478791
 20
1587.75433
 30
0.0
 42
-0.011861
  0
VERTEX
  5
12E
100
AcDbEntity
  8
035-DWG
100
AcDbVertex
100
AcDb2dVertex
 10
405.445128
 20
1585.482947
 30
0.0
 42
-0.03058
 70
     1
  0
VERTEX
  5
12F
100
AcDbEntity
  8
035-DWG
100
AcDbVertex
100
AcDb2dVertex
 10
403.81033
 20
1584.737169
 30
0.0
 42
-0.03058
  0
VERTEX
  5
130
100
AcDbEntity
  8
035-DWG
100
AcDbVertex
100
AcDb2dVertex
 10
400.742753
 20
1583.769042
 30
0.0
 42
-0.03058
 70
     1
  0
VERTEX
  5
131
100
AcDbEntity
  8
035-DWG
100
AcDbVertex
100
AcDb2dVertex
 10
397.579991
 20
1583.182321
 30
0.0
 42
-0.03058
  0
VERTEX
  5
132
100
AcDbEntity
  8
035-DWG
100
AcDbVertex
100
AcDb2dVertex
 10
394.369281
 20
1582.985769
 30
0.0
 42
-0.03058
 70
     1
  0
VERTEX
  5
133
100
AcDbEntity
  8
035-DWG
100
AcDbVertex
100
AcDb2dVertex
 10
391.15857
 20
1583.182321
 30
0.0
 42
-0.03058
  0
VERTEX
  5
134
100
AcDbEntity
  8
035-DWG
100
AcDbVertex
100
AcDb2dVertex
 10
387.995808
 20
1583.769042
 30
0.0
 42
-0.03058
 70
     1
  0
VERTEX
  5
135
100
AcDbEntity
  8
035-DWG
100
AcDbVertex
100
AcDb2dVertex
 10
384.928231
 20
1584.737169
 30
0.0
 42
-0.03058
  0
VERTEX
  5
136
100
AcDbEntity
  8
035-DWG
100
AcDbVertex
100
AcDb2dVertex
 10
383.293433
 20
1585.482947
 30
0.0
 42
-0.011861
 70
     1
  0
VERTEX
  5
137
100
AcDbEntity
  8
035-DWG
100
AcDbVertex
100
AcDb2dVertex
 10
379.259771
 20
1587.75433
 30
0.0
 42
-0.049321
  0
VERTEX
  5
138
100
AcDbEntity
  8
035-DWG
100
AcDbVertex
100
AcDb2dVertex
 10
377.273584
 20
1589.218161
 30
0.0
 42
-0.03058
 70
     1
  0
VERTEX
  5
139
100
AcDbEntity
  8
035-DWG
100
AcDbVertex
100
AcDb2dVertex
 10
374.490542
 20
1592.054238
 30
0.0
  0
SEQEND
  5
13A
100
AcDbEntity
  8
035-DWG
  0
ARC
  5
13B
100
AcDbEntity
  8
025-DWG
100
AcDbCircle
 10
394.369281
 20
1609.247628
 30
0.0
 40
25.025843
100
AcDbArc
 50
220.856972
 51
319.143028
  0
ARC
  5
13C
100
AcDbEntity
  8
025-DWG
100
AcDbCircle
 10
394.369281
 20
1609.247628
 30
0.0
 40
26.0255
100
AcDbArc
 50
220.856972
 51
319.143028
  0
CIRCLE
  5
13D
100
AcDbEntity
  8
025-DWG
100
AcDbCircle
 10
394.369281
 20
1592.847628
 30
0.0
 40
5.0
  0
CIRCLE
  5
13E
100
AcDbEntity
  8
025-DWG
100
AcDbCircle
 10
394.369281
 20
1592.847628
 30
0.0
 40
0.75
  0
CIRCLE
  5
13F
100
AcDbEntity
  8
025-DWG
100
AcDbCircle
 10
394.369281
 20
1592.847628
 30
0.0
 40
0.75
  0
LINE
  5
140
100
AcDbEntity
  8
035-DWG
100
AcDbLine
 10
373.746229
 20
1594.204013
 30
0.0
 11
373.423383
 21
1594.249331
 31
0.0
  0
LINE
  5
141
100
AcDbEntity
  8
035-DWG
100
AcDbLine
 10
373.829914
 20
1593.535031
 30
0.0
 11
373.746229
 21
1594.204013
 31
0.0
  0
LWPOLYLINE
  5
142
100
AcDbEntity
  8
035-DWG
100
AcDbPolyline
 90
        6
 70
     0
 43
0.0
 10
373.302479
 20
1595.737168
 10
373.442412
 20
1595.802454
 10
373.517043
 20
1595.937556
 10
373.497865
 20
1596.09087
 10
373.392202
 20
1596.203835
 10
373.240416
 20
1596.233302
  0
LWPOLYLINE
  5
143
100
AcDbEntity
  8
035-DWG
100
AcDbPolyline
 90
        6
 70
     0
 43
0.0
 10
373.364541
 20
1595.241033
 10
373.212755
 20
1595.2705
 10
373.107092
 20
1595.383465
 10
373.087914
 20
1595.536779
 10
373.162545
 20
1595.671882
 10
373.302479
 20
1595.737168
  0
LWPOLYLINE
  5
144
100
AcDbEntity
  8
035-DWG
100
AcDbPolyline
 90
        6
 70
     0
 43
0.0
 10
373.423383
 20
1594.249331
 10
373.293987
 20
1594.308199
 10
373.217393
 20
1594.427931
 10
373.218316
 20
1594.569894
 10
373.296457
 20
1594.688283
 10
373.426604
 20
1594.744899
  0
LWPOLYLINE
  5
145
100
AcDbEntity
  8
035-DWG
100
AcDbPolyline
 90
        7
 70
     0
 43
0.0
 10
373.178353
 20
1596.729437
 10
373.298272
 20
1596.777906
 10
373.377743
 20
1596.879858
 10
373.395474
 20
1597.007973
 10
373.346712
 20
1597.127925
 10
373.244524
 20
1597.207571
 10
373.11629
 20
1597.225571
  0
LWPOLYLINE
  5
146
100
AcDbEntity
  8
035-DWG
100
AcDbPolyline
 90
        6
 70
     0
 43
0.0
 10
373.240416
 20
1596.233302
 10
373.088629
 20
1596.26277
 10
372.982967
 20
1596.375735
 10
372.963788
 20
1596.529049
 10
373.038419
 20
1596.664151
 10
373.178353
 20
1596.729437
  0
LWPOLYLINE
  5
147
100
AcDbEntity
  8
035-DWG
100
AcDbPolyline
 90
        6
 70
     0
 43
0.0
 10
372.868039
 20
1599.21011
 10
372.716252
 20
1599.239577
 10
372.61059
 20
1599.352542
 10
372.591411
 20
1599.505856
 10
372.666042
 20
1599.640958
 10
372.805976
 20
1599.706244
  0
LWPOLYLINE
  5
148
100
AcDbEntity
  8
035-DWG
100
AcDbPolyline
 90
        6
 70
     0
 43
0.0
 10
372.930102
 20
1598.713975
 10
373.070035
 20
1598.779261
 10
373.144666
 20
1598.914363
 10
373.125488
 20
1599.067677
 10
373.019825
 20
1599.180642
 10
372.868039
 20
1599.21011
  0
LWPOLYLINE
  5
149
100
AcDbEntity
  8
035-DWG
100
AcDbPolyline
 90
        6
 70
     0
 43
0.0
 10
372.992164
 20
1598.21784
 10
372.840378
 20
1598.247308
 10
372.734715
 20
1598.360273
 10
372.715537
 20
1598.513587
 10
372.790168
 20
1598.648689
 10
372.930102
 20
1598.713975
  0
LWPOLYLINE
  5
14A
100
AcDbEntity
  8
035-DWG
100
AcDbPolyline
 90
        6
 70
     0
 43
0.0
 10
373.054227
 20
1597.721706
 10
373.194161
 20
1597.786992
 10
373.268792
 20
1597.922094
 10
373.249613
 20
1598.075408
 10
373.143951
 20
1598.188373
 10
372.992164
 20
1598.21784
  0
LWPOLYLINE
  5
14B
100
AcDbEntity
  8
035-DWG
100
AcDbPolyline
 90
        7
 70
     0
 43
0.0
 10
373.11629
 20
1597.225571
 10
372.988056
 20
1597.243571
 10
372.885868
 20
1597.323218
 10
372.837106
 20
1597.443169
 10
372.854837
 20
1597.571285
 10
372.934308
 20
1597.673237
 10
373.054227
 20
1597.721706
  0
LWPOLYLINE
  5
14C
100
AcDbEntity
  8
035-DWG
100
AcDbPolyline
 90
        7
 70
     0
 43
0.0
 10
373.426604
 20
1594.744899
 10
373.546523
 20
1594.793368
 10
373.625995
 20
1594.895319
 10
373.643725
 20
1595.023435
 10
373.594963
 20
1595.143387
 10
373.492775
 20
1595.223033
 10
373.364541
 20
1595.241033
  0
LWPOLYLINE
  5
14D
100
AcDbEntity
  8
035-DWG
100
AcDbPolyline
 90
        3
 70
     0
 43
0.0
 10
374.490542
 20
1592.054238
 10
374.05015
 20
1592.745525
 10
373.829914
 20
1593.535031
  0
LWPOLYLINE
  5
14E
100
AcDbEntity
  8
025-DWG
100
AcDbPolyline
 90
        6
 70
     0
 43
0.0
 10
373.424885
 20
1596.759707
 10
373.281085
 20
1596.693946
 10
373.203849
 20
1596.558524
 10
373.222679
 20
1596.405168
 10
373.330382
 20
1596.292453
 10
373.48582
 20
1596.263434
  0
LINE
  5
14F
100
AcDbEntity
  8
025-DWG
100
AcDbLine
 10
373.48582
 20
1596.263434
 30
0.0
 11
373.240416
 21
1596.233302
 31
0.0
  0
LINE
  5
150
100
AcDbEntity
  8
025-DWG
100
AcDbLine
 10
373.424885
 20
1596.759707
 30
0.0
 11
373.178353
 21
1596.729437
 31
0.0
  0
LWPOLYLINE
  5
151
100
AcDbEntity
  8
025-DWG
100
AcDbPolyline
 90
        3
 70
     0
 43
0.0
 10
373.120212
 20
1599.241073
 10
373.309127
 20
1599.190495
 10
373.405226
 20
1599.02419
  0
LWPOLYLINE
  5
152
100
AcDbEntity
  8
025-DWG
100
AcDbPolyline
 90
        3
 70
     0
 43
0.0
 10
373.242081
 20
1598.248526
 10
373.430997
 20
1598.197949
 10
373.527095
 20
1598.031644
  0
LWPOLYLINE
  5
153
100
AcDbEntity
  8
025-DWG
100
AcDbPolyline
 90
        4
 70
     0
 43
0.0
 10
373.405226
 20
1599.02419
 10
373.386357
 20
1598.895935
 10
373.304338
 20
1598.793671
 10
373.181147
 20
1598.744799
  0
LWPOLYLINE
  5
154
100
AcDbEntity
  8
025-DWG
100
AcDbPolyline
 90
        7
 70
     0
 43
0.0
 10
373.303016
 20
1597.752253
 10
373.179824
 20
1597.703382
 10
373.097805
 20
1597.601118
 10
373.078936
 20
1597.472862
 10
373.128273
 20
1597.352981
 10
373.232595
 20
1597.273597
 10
373.363951
 20
1597.25598
  0
LINE
  5
155
100
AcDbEntity
  8
025-DWG
100
AcDbLine
 10
373.363951
 20
1597.25598
 30
0.0
 11
373.11629
 21
1597.225571
 31
0.0
  0
LINE
  5
156
100
AcDbEntity
  8
025-DWG
100
AcDbLine
 10
373.303016
 20
1597.752253
 30
0.0
 11
373.054227
 21
1597.721706
 31
0.0
  0
LWPOLYLINE
  5
157
100
AcDbEntity
  8
025-DWG
100
AcDbPolyline
 90
        6
 70
     0
 43
0.0
 10
373.059277
 20
1599.737346
 10
372.915477
 20
1599.671585
 10
372.838241
 20
1599.536163
 10
372.857071
 20
1599.382806
 10
372.964774
 20
1599.270092
 10
373.120212
 20
1599.241073
  0
LWPOLYLINE
  5
158
100
AcDbEntity
  8
025-DWG
100
AcDbPolyline
 90
        6
 70
     0
 43
0.0
 10
373.181147
 20
1598.744799
 10
373.037346
 20
1598.679039
 10
372.96011
 20
1598.543617
 10
372.97894
 20
1598.39026
 10
373.086643
 20
1598.277545
 10
373.242081
 20
1598.248526
  0
LINE
  5
159
100
AcDbEntity
  8
025-DWG
100
AcDbLine
 10
373.242081
 20
1598.248526
 30
0.0
 11
372.992164
 21
1598.21784
 31
0.0
  0
LINE
  5
15A
100
AcDbEntity
  8
025-DWG
100
AcDbLine
 10
373.181147
 20
1598.744799
 30
0.0
 11
372.930102
 21
1598.713975
 31
0.0
  0
LINE
  5
15B
100
AcDbEntity
  8
025-DWG
100
AcDbLine
 10
373.120212
 20
1599.241073
 30
0.0
 11
372.868039
 21
1599.21011
 31
0.0
  0
LINE
  5
15C
100
AcDbEntity
  8
025-DWG
100
AcDbLine
 10
373.059277
 20
1599.737346
 30
0.0
 11
372.805976
 21
1599.706244
 31
0.0
  0
LINE
  5
15D
100
AcDbEntity
  8
025-DWG
100
AcDbLine
 10
373.746229
 20
1594.204013
 30
0.0
 11
373.993344
 21
1594.234355
 31
0.0
  0
LWPOLYLINE
  5
15E
100
AcDbEntity
  8
025-DWG
100
AcDbPolyline
 90
        3
 70
     0
 43
0.0
 10
373.48582
 20
1596.263434
 10
373.674735
 20
1596.212857
 10
373.770834
 20
1596.046552
  0
LWPOLYLINE
  5
15F
100
AcDbEntity
  8
025-DWG
100
AcDbPolyline
 90
        4
 70
     0
 43
0.0
 10
373.607689
 20
1595.270888
 10
373.739045
 20
1595.253271
 10
373.843367
 20
1595.173887
 10
373.892704
 20
1595.054006
  0
LWPOLYLINE
  5
160
100
AcDbEntity
  8
025-DWG
100
AcDbPolyline
 90
        6
 70
     0
 43
0.0
 10
373.546755
 20
1595.767161
 10
373.402954
 20
1595.7014
 10
373.325718
 20
1595.565978
 10
373.344548
 20
1595.412621
 10
373.452252
 20
1595.299907
 10
373.607689
 20
1595.270888
  0
LWPOLYLINE
  5
161
100
AcDbEntity
  8
025-DWG
100
AcDbPolyline
 90
        4
 70
     0
 43
0.0
 10
373.770834
 20
1596.046552
 10
373.751965
 20
1595.918296
 10
373.669946
 20
1595.816032
 10
373.546755
 20
1595.767161
  0
LINE
  5
162
100
AcDbEntity
  8
025-DWG
100
AcDbLine
 10
373.662639
 20
1594.278708
 30
0.0
 11
373.993344
 21
1594.234355
 31
0.0
  0
LWPOLYLINE
  5
163
100
AcDbEntity
  8
025-DWG
100
AcDbPolyline
 90
        6
 70
     0
 43
0.0
 10
373.668624
 20
1594.774615
 10
373.534903
 20
1594.717561
 10
373.454159
 20
1594.598852
 10
373.452444
 20
1594.456792
 10
373.530313
 20
1594.337216
 10
373.662639
 20
1594.278708
  0
LWPOLYLINE
  5
164
100
AcDbEntity
  8
025-DWG
100
AcDbPolyline
 90
        4
 70
     0
 43
0.0
 10
373.892704
 20
1595.054006
 10
373.873834
 20
1594.92575
 10
373.791816
 20
1594.823486
 10
373.668624
 20
1594.774615
  0
LINE
  5
165
100
AcDbEntity
  8
025-DWG
100
AcDbLine
 10
373.662639
 20
1594.278708
 30
0.0
 11
373.423383
 21
1594.249331
 31
0.0
  0
LINE
  5
166
100
AcDbEntity
  8
025-DWG
100
AcDbLine
 10
373.668624
 20
1594.774615
 30
0.0
 11
373.426604
 21
1594.744899
 31
0.0
  0
LINE
  5
167
100
AcDbEntity
  8
025-DWG
100
AcDbLine
 10
373.607689
 20
1595.270888
 30
0.0
 11
373.364541
 21
1595.241033
 31
0.0
  0
LINE
  5
168
100
AcDbEntity
  8
025-DWG
100
AcDbLine
 10
373.546755
 20
1595.767161
 30
0.0
 11
373.302479
 21
1595.737168
 31
0.0
  0
LWPOLYLINE
  5
169
100
AcDbEntity
  8
025-DWG
100
AcDbPolyline
 90
        3
 70
     0
 43
0.0
 10
373.363951
 20
1597.25598
 10
373.552866
 20
1597.205403
 10
373.648965
 20
1597.039098
  0
LWPOLYLINE
  5
16A
100
AcDbEntity
  8
025-DWG
100
AcDbPolyline
 90
        4
 70
     0
 43
0.0
 10
373.527095
 20
1598.031644
 10
373.508226
 20
1597.903389
 10
373.426207
 20
1597.801125
 10
373.303016
 20
1597.752253
  0
LWPOLYLINE
  5
16B
100
AcDbEntity
  8
025-DWG
100
AcDbPolyline
 90
        3
 70
     0
 43
0.0
 10
373.648965
 20
1597.039098
 10
373.595953
 20
1596.854485
 10
373.424885
 20
1596.759707
  0
LINE
  5
16C
100
AcDbEntity
  8
025-DWG
100
AcDbLine
 10
374.088498
 20
1593.566782
 30
0.0
 11
373.332003
 21
1599.727945
 31
0.0
  0
LINE
  5
16D
100
AcDbEntity
  8
025-DWG
100
AcDbLine
 10
374.352575
 20
1599.618751
 30
0.0
 11
375.080704
 21
1593.688609
 31
0.0
  0
LINE
  5
16E
100
AcDbEntity
  8
025-DWG
100
AcDbLine
 10
374.088498
 20
1593.566782
 30
0.0
 11
373.829914
 21
1593.535031
 31
0.0
  0
LINE
  5
16F
100
AcDbEntity
  8
025-DWG
100
AcDbLine
 10
375.080704
 20
1593.688609
 30
0.0
 11
374.088498
 21
1593.566782
 31
0.0
  0
ARC
  5
170
100
AcDbEntity
  8
025-DWG
100
AcDbCircle
 10
376.595174
 20
1593.874563
 30
0.0
 40
1.525843
100
AcDbArc
 50
187.0
 51
220.856972
  0
ARC
  5
171
100
AcDbEntity
  8
025-DWG
100
AcDbCircle
 10
376.595174
 20
1593.874563
 30
0.0
 40
2.5255
100
AcDbArc
 50
187.0
 51
220.856972
  0
LINE
  5
172
100
AcDbEntity
  8
025-DWG
100
AcDbLine
 10
374.685025
 20
1592.222449
 30
0.0
 11
374.490542
 21
1592.054238
 31
0.0
  0
LINE
  5
173
100
AcDbEntity
  8
025-DWG
100
AcDbLine
 10
375.44111
 20
1592.876397
 30
0.0
 11
374.685025
 21
1592.222449
 31
0.0
  0
LINE
  5
174
100
AcDbEntity
  8
035-DWG
100
AcDbLine
 10
373.746229
 20
1594.204013
 30
0.0
 11
373.423383
 21
1594.249331
 31
0.0
  0
LINE
  5
175
100
AcDbEntity
  8
035-DWG
100
AcDbLine
 10
373.829914
 20
1593.535031
 30
0.0
 11
373.746229
 21
1594.204013
 31
0.0
  0
LWPOLYLINE
  5
176
100
AcDbEntity
  8
035-DWG
100
AcDbPolyline
 90
        6
 70
     0
 43
0.0
 10
373.302479
 20
1595.737168
 10
373.442412
 20
1595.802454
 10
373.517043
 20
1595.937556
 10
373.497865
 20
1596.09087
 10
373.392202
 20
1596.203835
 10
373.240416
 20
1596.233302
  0
LWPOLYLINE
  5
177
100
AcDbEntity
  8
035-DWG
100
AcDbPolyline
 90
        6
 70
     0
 43
0.0
 10
373.364541
 20
1595.241033
 10
373.212755
 20
1595.2705
 10
373.107092
 20
1595.383465
 10
373.087914
 20
1595.536779
 10
373.162545
 20
1595.671882
 10
373.302479
 20
1595.737168
  0
LWPOLYLINE
  5
178
100
AcDbEntity
  8
035-DWG
100
AcDbPolyline
 90
        6
 70
     0
 43
0.0
 10
373.423383
 20
1594.249331
 10
373.293987
 20
1594.308199
 10
373.217393
 20
1594.427931
 10
373.218316
 20
1594.569894
 10
373.296457
 20
1594.688283
 10
373.426604
 20
1594.744899
  0
LWPOLYLINE
  5
179
100
AcDbEntity
  8
035-DWG
100
AcDbPolyline
 90
        7
 70
     0
 43
0.0
 10
373.178353
 20
1596.729437
 10
373.298272
 20
1596.777906
 10
373.377743
 20
1596.879858
 10
373.395474
 20
1597.007973
 10
373.346712
 20
1597.127925
 10
373.244524
 20
1597.207571
 10
373.11629
 20
1597.225571
  0
LWPOLYLINE
  5
17A
100
AcDbEntity
  8
035-DWG
100
AcDbPolyline
 90
        6
 70
     0
 43
0.0
 10
373.240416
 20
1596.233302
 10
373.088629
 20
1596.26277
 10
372.982967
 20
1596.375735
 10
372.963788
 20
1596.529049
 10
373.038419
 20
1596.664151
 10
373.178353
 20
1596.729437
  0
LWPOLYLINE
  5
17B
100
AcDbEntity
  8
035-DWG
100
AcDbPolyline
 90
        6
 70
     0
 43
0.0
 10
372.868039
 20
1599.21011
 10
372.716252
 20
1599.239577
 10
372.61059
 20
1599.352542
 10
372.591411
 20
1599.505856
 10
372.666042
 20
1599.640958
 10
372.805976
 20
1599.706244
  0
LWPOLYLINE
  5
17C
100
AcDbEntity
  8
035-DWG
100
AcDbPolyline
 90
        6
 70
     0
 43
0.0
 10
372.930102
 20
1598.713975
 10
373.070035
 20
1598.779261
 10
373.144666
 20
1598.914363
 10
373.125488
 20
1599.067677
 10
373.019825
 20
1599.180642
 10
372.868039
 20
1599.21011
  0
LWPOLYLINE
  5
17D
100
AcDbEntity
  8
035-DWG
100
AcDbPolyline
 90
        6
 70
     0
 43
0.0
 10
372.992164
 20
1598.21784
 10
372.840378
 20
1598.247308
 10
372.734715
 20
1598.360273
 10
372.715537
 20
1598.513587
 10
372.790168
 20
1598.648689
 10
372.930102
 20
1598.713975
  0
LWPOLYLINE
  5
17E
100
AcDbEntity
  8
035-DWG
100
AcDbPolyline
 90
        6
 70
     0
 43
0.0
 10
373.054227
 20
1597.721706
 10
373.194161
 20
1597.786992
 10
373.268792
 20
1597.922094
 10
373.249613
 20
1598.075408
 10
373.143951
 20
1598.188373
 10
372.992164
 20
1598.21784
  0
LWPOLYLINE
  5
17F
100
AcDbEntity
  8
035-DWG
100
AcDbPolyline
 90
        7
 70
     0
 43
0.0
 10
373.11629
 20
1597.225571
 10
372.988056
 20
1597.243571
 10
372.885868
 20
1597.323218
 10
372.837106
 20
1597.443169
 10
372.854837
 20
1597.571285
 10
372.934308
 20
1597.673237
 10
373.054227
 20
1597.721706
  0
LWPOLYLINE
  5
180
100
AcDbEntity
  8
035-DWG
100
AcDbPolyline
 90
        7
 70
     0
 43
0.0
 10
373.426604
 20
1594.744899
 10
373.546523
 20
1594.793368
 10
373.625995
 20
1594.895319
 10
373.643725
 20
1595.023435
 10
373.594963
 20
1595.143387
 10
373.492775
 20
1595.223033
 10
373.364541
 20
1595.241033
  0
LWPOLYLINE
  5
181
100
AcDbEntity
  8
035-DWG
100
AcDbPolyline
 90
        3
 70
     0
 43
0.0
 10
374.490542
 20
1592.054238
 10
374.05015
 20
1592.745525
 10
373.829914
 20
1593.535031
  0
LWPOLYLINE
  5
182
100
AcDbEntity
  8
025-DWG
100
AcDbPolyline
 90
        6
 70
     0
 43
0.0
 10
373.424885
 20
1596.759707
 10
373.281085
 20
1596.693946
 10
373.203849
 20
1596.558524
 10
373.222679
 20
1596.405168
 10
373.330382
 20
1596.292453
 10
373.48582
 20
1596.263434
  0
LINE
  5
183
100
AcDbEntity
  8
025-DWG
100
AcDbLine
 10
373.48582
 20
1596.263434
 30
0.0
 11
373.240416
 21
1596.233302
 31
0.0
  0
LINE
  5
184
100
AcDbEntity
  8
025-DWG
100
AcDbLine
 10
373.424885
 20
1596.759707
 30
0.0
 11
373.178353
 21
1596.729437
 31
0.0
  0
LWPOLYLINE
  5
185
100
AcDbEntity
  8
025-DWG
100
AcDbPolyline
 90
        3
 70
     0
 43
0.0
 10
373.120212
 20
1599.241073
 10
373.309127
 20
1599.190495
 10
373.405226
 20
1599.02419
  0
LWPOLYLINE
  5
186
100
AcDbEntity
  8
025-DWG
100
AcDbPolyline
 90
        3
 70
     0
 43
0.0
 10
373.242081
 20
1598.248526
 10
373.430997
 20
1598.197949
 10
373.527095
 20
1598.031644
  0
LWPOLYLINE
  5
187
100
AcDbEntity
  8
025-DWG
100
AcDbPolyline
 90
        4
 70
     0
 43
0.0
 10
373.405226
 20
1599.02419
 10
373.386357
 20
1598.895935
 10
373.304338
 20
1598.793671
 10
373.181147
 20
1598.744799
  0
LWPOLYLINE
  5
188
100
AcDbEntity
  8
025-DWG
100
AcDbPolyline
 90
        7
 70
     0
 43
0.0
 10
373.303016
 20
1597.752253
 10
373.179824
 20
1597.703382
 10
373.097805
 20
1597.601118
 10
373.078936
 20
1597.472862
 10
373.128273
 20
1597.352981
 10
373.232595
 20
1597.273597
 10
373.363951
 20
1597.25598
  0
LINE
  5
189
100
AcDbEntity
  8
025-DWG
100
AcDbLine
 10
373.363951
 20
1597.25598
 30
0.0
 11
373.11629
 21
1597.225571
 31
0.0
  0
LINE
  5
18A
100
AcDbEntity
  8
025-DWG
100
AcDbLine
 10
373.303016
 20
1597.752253
 30
0.0
 11
373.054227
 21
1597.721706
 31
0.0
  0
LWPOLYLINE
  5
18B
100
AcDbEntity
  8
025-DWG
100
AcDbPolyline
 90
        6
 70
     0
 43
0.0
 10
373.059277
 20
1599.737346
 10
372.915477
 20
1599.671585
 10
372.838241
 20
1599.536163
 10
372.857071
 20
1599.382806
 10
372.964774
 20
1599.270092
 10
373.120212
 20
1599.241073
  0
LWPOLYLINE
  5
18C
100
AcDbEntity
  8
025-DWG
100
AcDbPolyline
 90
        6
 70
     0
 43
0.0
 10
373.181147
 20
1598.744799
 10
373.037346
 20
1598.679039
 10
372.96011
 20
1598.543617
 10
372.97894
 20
1598.39026
 10
373.086643
 20
1598.277545
 10
373.242081
 20
1598.248526
  0
LINE
  5
18D
100
AcDbEntity
  8
025-DWG
100
AcDbLine
 10
373.242081
 20
1598.248526
 30
0.0
 11
372.992164
 21
1598.21784
 31
0.0
  0
LINE
  5
18E
100
AcDbEntity
  8
025-DWG
100
AcDbLine
 10
373.181147
 20
1598.744799
 30
0.0
 11
372.930102
 21
1598.713975
 31
0.0
  0
LINE
  5
18F
100
AcDbEntity
  8
025-DWG
100
AcDbLine
 10
373.120212
 20
1599.241073
 30
0.0
 11
372.868039
 21
1599.21011
 31
0.0
  0
LINE
  5
190
100
AcDbEntity
  8
025-DWG
100
AcDbLine
 10
373.059277
 20
1599.737346
 30
0.0
 11
372.805976
 21
1599.706244
 31
0.0
  0
LINE
  5
191
100
AcDbEntity
  8
025-DWG
100
AcDbLine
 10
373.746229
 20
1594.204013
 30
0.0
 11
373.993344
 21
1594.234355
 31
0.0
  0
LWPOLYLINE
  5
192
100
AcDbEntity
  8
025-DWG
100
AcDbPolyline
 90
        3
 70
     0
 43
0.0
 10
373.48582
 20
1596.263434
 10
373.674735
 20
1596.212857
 10
373.770834
 20
1596.046552
  0
LWPOLYLINE
  5
193
100
AcDbEntity
  8
025-DWG
100
AcDbPolyline
 90
        4
 70
     0
 43
0.0
 10
373.607689
 20
1595.270888
 10
373.739045
 20
1595.253271
 10
373.843367
 20
1595.173887
 10
373.892704
 20
1595.054006
  0
LWPOLYLINE
  5
194
100
AcDbEntity
  8
025-DWG
100
AcDbPolyline
 90
        6
 70
     0
 43
0.0
 10
373.546755
 20
1595.767161
 10
373.402954
 20
1595.7014
 10
373.325718
 20
1595.565978
 10
373.344548
 20
1595.412621
 10
373.452252
 20
1595.299907
 10
373.607689
 20
1595.270888
  0
LWPOLYLINE
  5
195
100
AcDbEntity
  8
025-DWG
100
AcDbPolyline
 90
        4
 70
     0
 43
0.0
 10
373.770834
 20
1596.046552
 10
373.751965
 20
1595.918296
 10
373.669946
 20
1595.816032
 10
373.546755
 20
1595.767161
  0
LINE
  5
196
100
AcDbEntity
  8
025-DWG
100
AcDbLine
 10
373.662639
 20
1594.278708
 30
0.0
 11
373.993344
 21
1594.234355
 31
0.0
  0
LWPOLYLINE
  5
197
100
AcDbEntity
  8
025-DWG
100
AcDbPolyline
 90
        6
 70
     0
 43
0.0
 10
373.668624
 20
1594.774615
 10
373.534903
 20
1594.717561
 10
373.454159
 20
1594.598852
 10
373.452444
 20
1594.456792
 10
373.530313
 20
1594.337216
 10
373.662639
 20
1594.278708
  0
LWPOLYLINE
  5
198
100
AcDbEntity
  8
025-DWG
100
AcDbPolyline
 90
        4
 70
     0
 43
0.0
 10
373.892704
 20
1595.054006
 10
373.873834
 20
1594.92575
 10
373.791816
 20
1594.823486
 10
373.668624
 20
1594.774615
  0
LINE
  5
199
100
AcDbEntity
  8
025-DWG
100
AcDbLine
 10
373.662639
 20
1594.278708
 30
0.0
 11
373.423383
 21
1594.249331
 31
0.0
  0
LINE
  5
19A
100
AcDbEntity
  8
025-DWG
100
AcDbLine
 10
373.668624
 20
1594.774615
 30
0.0
 11
373.426604
 21
1594.744899
 31
0.0
  0
LINE
  5
19B
100
AcDbEntity
  8
025-DWG
100
AcDbLine
 10
373.607689
 20
1595.270888
 30
0.0
 11
373.364541
 21
1595.241033
 31
0.0
  0
LINE
  5
19C
100
AcDbEntity
  8
025-DWG
100
AcDbLine
 10
373.546755
 20
1595.767161
 30
0.0
 11
373.302479
 21
1595.737168
 31
0.0
  0
LWPOLYLINE
  5
19D
100
AcDbEntity
  8
025-DWG
100
AcDbPolyline
 90
        3
 70
     0
 43
0.0
 10
373.363951
 20
1597.25598
 10
373.552866
 20
1597.205403
 10
373.648965
 20
1597.039098
  0
LWPOLYLINE
  5
19E
100
AcDbEntity
  8
025-DWG
100
AcDbPolyline
 90
        4
 70
     0
 43
0.0
 10
373.527095
 20
1598.031644
 10
373.508226
 20
1597.903389
 10
373.426207
 20
1597.801125
 10
373.303016
 20
1597.752253
  0
LWPOLYLINE
  5
19F
100
AcDbEntity
  8
025-DWG
100
AcDbPolyline
 90
        3
 70
     0
 43
0.0
 10
373.648965
 20
1597.039098
 10
373.595953
 20
1596.854485
 10
373.424885
 20
1596.759707
  0
LINE
  5
1A0
100
AcDbEntity
  8
025-DWG
100
AcDbLine
 10
374.088498
 20
1593.566782
 30
0.0
 11
373.332003
 21
1599.727945
 31
0.0
  0
LINE
  5
1A1
100
AcDbEntity
  8
025-DWG
100
AcDbLine
 10
374.352575
 20
1599.618751
 30
0.0
 11
375.080704
 21
1593.688609
 31
0.0
  0
LINE
  5
1A2
100
AcDbEntity
  8
025-DWG
100
AcDbLine
 10
374.088498
 20
1593.566782
 30
0.0
 11
373.829914
 21
1593.535031
 31
0.0
  0
LINE
  5
1A3
100
AcDbEntity
  8
025-DWG
100
AcDbLine
 10
375.080704
 20
1593.688609
 30
0.0
 11
374.088498
 21
1593.566782
 31
0.0
  0
ARC
  5
1A4
100
AcDbEntity
  8
025-DWG
100
AcDbCircle
 10
376.595174
 20
1593.874563
 30
0.0
 40
1.525843
100
AcDbArc
 50
187.0
 51
220.856972
  0
ARC
  5
1A5
100
AcDbEntity
  8
025-DWG
100
AcDbCircle
 10
376.595174
 20
1593.874563
 30
0.0
 40
2.5255
100
AcDbArc
 50
187.0
 51
220.856972
  0
LINE
  5
1A6
100
AcDbEntity
  8
025-DWG
100
AcDbLine
 10
374.685025
 20
1592.222449
 30
0.0
 11
374.490542
 21
1592.054238
 31
0.0
  0
LINE
  5
1A7
100
AcDbEntity
  8
025-DWG
100
AcDbLine
 10
375.44111
 20
1592.876397
 30
0.0
 11
374.685025
 21
1592.222449
 31
0.0
  0
LINE
  5
1A8
100
AcDbEntity
  8
035-DWG
100
AcDbLine
 10
415.315178
 20
1594.249331
 30
0.0
 11
414.992332
 21
1594.204013
 31
0.0
  0
LINE
  5
1A9
100
AcDbEntity
  8
035-DWG
100
AcDbLine
 10
414.992332
 20
1594.204013
 30
0.0
 11
414.908648
 21
1593.535031
 31
0.0
  0
LWPOLYLINE
  5
1AA
100
AcDbEntity
  8
035-DWG
100
AcDbPolyline
 90
        6
 70
     0
 43
0.0
 10
415.311957
 20
1594.744899
 10
415.442104
 20
1594.688283
 10
415.520246
 20
1594.569894
 10
415.521168
 20
1594.427931
 10
415.444575
 20
1594.308199
 10
415.315178
 20
1594.249331
  0
LWPOLYLINE
  5
1AB
100
AcDbEntity
  8
035-DWG
100
AcDbPolyline
 90
        6
 70
     0
 43
0.0
 10
415.37402
 20
1595.241033
 10
415.222233
 20
1595.211566
 10
415.116571
 20
1595.098601
 10
415.097392
 20
1594.945287
 10
415.172023
 20
1594.810185
 10
415.311957
 20
1594.744899
  0
LWPOLYLINE
  5
1AC
100
AcDbEntity
  8
035-DWG
100
AcDbPolyline
 90
        6
 70
     0
 43
0.0
 10
415.436083
 20
1595.737168
 10
415.576017
 20
1595.671882
 10
415.650647
 20
1595.536779
 10
415.631469
 20
1595.383465
 10
415.525807
 20
1595.2705
 10
415.37402
 20
1595.241033
  0
LWPOLYLINE
  5
1AD
100
AcDbEntity
  8
035-DWG
100
AcDbPolyline
 90
        6
 70
     0
 43
0.0
 10
415.498146
 20
1596.233302
 10
415.346359
 20
1596.203835
 10
415.240697
 20
1596.09087
 10
415.221518
 20
1595.937556
 10
415.296149
 20
1595.802454
 10
415.436083
 20
1595.737168
  0
LWPOLYLINE
  5
1AE
100
AcDbEntity
  8
035-DWG
100
AcDbPolyline
 90
        7
 70
     0
 43
0.0
 10
415.560208
 20
1596.729437
 10
415.680127
 20
1596.680967
 10
415.759599
 20
1596.579016
 10
415.777329
 20
1596.4509
 10
415.728568
 20
1596.330949
 10
415.626379
 20
1596.251302
 10
415.498146
 20
1596.233302
  0
LWPOLYLINE
  5
1AF
100
AcDbEntity
  8
035-DWG
100
AcDbPolyline
 90
        6
 70
     0
 43
0.0
 10
415.684334
 20
1597.721706
 10
415.824268
 20
1597.65642
 10
415.898899
 20
1597.521318
 10
415.87972
 20
1597.368004
 10
415.774058
 20
1597.255039
 10
415.622271
 20
1597.225571
  0
LWPOLYLINE
  5
1B0
100
AcDbEntity
  8
035-DWG
100
AcDbPolyline
 90
        6
 70
     0
 43
0.0
 10
415.746397
 20
1598.21784
 10
415.59461
 20
1598.188373
 10
415.488948
 20
1598.075408
 10
415.469769
 20
1597.922094
 10
415.5444
 20
1597.786992
 10
415.684334
 20
1597.721706
  0
LWPOLYLINE
  5
1B1
100
AcDbEntity
  8
035-DWG
100
AcDbPolyline
 90
        7
 70
     0
 43
0.0
 10
415.80846
 20
1598.713975
 10
415.928378
 20
1598.665506
 10
416.00785
 20
1598.563554
 10
416.025581
 20
1598.435438
 10
415.976819
 20
1598.315487
 10
415.874631
 20
1598.235841
 10
415.746397
 20
1598.21784
  0
LWPOLYLINE
  5
1B2
100
AcDbEntity
  8
035-DWG
100
AcDbPolyline
 90
        6
 70
     0
 43
0.0
 10
415.870523
 20
1599.21011
 10
415.718736
 20
1599.180642
 10
415.613074
 20
1599.067677
 10
415.593895
 20
1598.914363
 10
415.668526
 20
1598.779261
 10
415.80846
 20
1598.713975
  0
LWPOLYLINE
  5
1B3
100
AcDbEntity
  8
035-DWG
100
AcDbPolyline
 90
        7
 70
     0
 43
0.0
 10
415.932585
 20
1599.706244
 10
416.052504
 20
1599.657775
 10
416.131976
 20
1599.555823
 10
416.149706
 20
1599.427708
 10
416.100944
 20
1599.307756
 10
415.998756
 20
1599.22811
 10
415.870523
 20
1599.21011
  0
LWPOLYLINE
  5
1B4
100
AcDbEntity
  8
035-DWG
100
AcDbPolyline
 90
        6
 70
     0
 43
0.0
 10
415.622271
 20
1597.225571
 10
415.470485
 20
1597.196104
 10
415.364822
 20
1597.083139
 10
415.345644
 20
1596.929825
 10
415.420275
 20
1596.794723
 10
415.560208
 20
1596.729437
  0
LWPOLYLINE
  5
1B5
100
AcDbEntity
  8
035-DWG
100
AcDbPolyline
 90
        3
 70
     0
 43
0.0
 10
414.908648
 20
1593.535031
 10
414.688411
 20
1592.745525
 10
414.248019
 20
1592.054238
  0
LINE
  5
1B6
100
AcDbEntity
  8
025-DWG
100
AcDbLine
 10
414.745217
 20
1594.234355
 30
0.0
 11
414.992332
 21
1594.204013
 31
0.0
  0
LWPOLYLINE
  5
1B7
100
AcDbEntity
  8
025-DWG
100
AcDbPolyline
 90
        4
 70
     0
 43
0.0
 10
414.845858
 20
1595.054006
 10
414.895194
 20
1595.173887
 10
414.999517
 20
1595.253271
 10
415.130872
 20
1595.270888
  0
LWPOLYLINE
  5
1B8
100
AcDbEntity
  8
025-DWG
100
AcDbPolyline
 90
        3
 70
     0
 43
0.0
 10
415.191807
 20
1595.767161
 10
415.020739
 20
1595.861939
 10
414.967727
 20
1596.046552
  0
LWPOLYLINE
  5
1B9
100
AcDbEntity
  8
025-DWG
100
AcDbPolyline
 90
        6
 70
     0
 43
0.0
 10
415.130872
 20
1595.270888
 10
415.28631
 20
1595.299907
 10
415.394013
 20
1595.412621
 10
415.412843
 20
1595.565978
 10
415.335607
 20
1595.7014
 10
415.191807
 20
1595.767161
  0
LWPOLYLINE
  5
1BA
100
AcDbEntity
  8
025-DWG
100
AcDbPolyline
 90
        3
 70
     0
 43
0.0
 10
414.967727
 20
1596.046552
 10
415.063826
 20
1596.212857
 10
415.252741
 20
1596.263434
  0
LWPOLYLINE
  5
1BB
100
AcDbEntity
  8
025-DWG
100
AcDbPolyline
 90
        6
 70
     0
 43
0.0
 10
415.252741
 20
1596.263434
 10
415.408179
 20
1596.292453
 10
415.515882
 20
1596.405168
 10
415.534712
 20
1596.558524
 10
415.457476
 20
1596.693946
 10
415.313676
 20
1596.759707
  0
LINE
  5
1BC
100
AcDbEntity
  8
025-DWG
100
AcDbLine
 10
414.745217
 20
1594.234355
 30
0.0
 11
415.075922
 21
1594.278708
 31
0.0
  0
LWPOLYLINE
  5
1BD
100
AcDbEntity
  8
025-DWG
100
AcDbPolyline
 90
        3
 70
     0
 43
0.0
 10
415.069937
 20
1594.774615
 10
414.898869
 20
1594.869393
 10
414.845858
 20
1595.054006
  0
LWPOLYLINE
  5
1BE
100
AcDbEntity
  8
025-DWG
100
AcDbPolyline
 90
        6
 70
     0
 43
0.0
 10
415.075922
 20
1594.278708
 10
415.208249
 20
1594.337216
 10
415.286117
 20
1594.456792
 10
415.284402
 20
1594.598852
 10
415.203658
 20
1594.717561
 10
415.069937
 20
1594.774615
  0
LINE
  5
1BF
100
AcDbEntity
  8
025-DWG
100
AcDbLine
 10
415.069937
 20
1594.774615
 30
0.0
 11
415.311957
 21
1594.744899
 31
0.0
  0
LINE
  5
1C0
100
AcDbEntity
  8
025-DWG
100
AcDbLine
 10
415.075922
 20
1594.278708
 30
0.0
 11
415.315178
 21
1594.249331
 31
0.0
  0
LINE
  5
1C1
100
AcDbEntity
  8
025-DWG
100
AcDbLine
 10
415.191807
 20
1595.767161
 30
0.0
 11
415.436083
 21
1595.737168
 31
0.0
  0
LINE
  5
1C2
100
AcDbEntity
  8
025-DWG
100
AcDbLine
 10
415.130872
 20
1595.270888
 30
0.0
 11
415.37402
 21
1595.241033
 31
0.0
  0
LINE
  5
1C3
100
AcDbEntity
  8
025-DWG
100
AcDbLine
 10
415.313676
 20
1596.759707
 30
0.0
 11
415.560208
 21
1596.729437
 31
0.0
  0
LINE
  5
1C4
100
AcDbEntity
  8
025-DWG
100
AcDbLine
 10
415.252741
 20
1596.263434
 30
0.0
 11
415.498146
 21
1596.233302
 31
0.0
  0
LWPOLYLINE
  5
1C5
100
AcDbEntity
  8
025-DWG
100
AcDbPolyline
 90
        3
 70
     0
 43
0.0
 10
415.089596
 20
1597.039098
 10
415.185695
 20
1597.205403
 10
415.374611
 20
1597.25598
  0
LWPOLYLINE
  5
1C6
100
AcDbEntity
  8
025-DWG
100
AcDbPolyline
 90
        4
 70
     0
 43
0.0
 10
415.435545
 20
1597.752253
 10
415.312354
 20
1597.801125
 10
415.230335
 20
1597.903389
 10
415.211466
 20
1598.031644
  0
LWPOLYLINE
  5
1C7
100
AcDbEntity
  8
025-DWG
100
AcDbPolyline
 90
        6
 70
     0
 43
0.0
 10
415.374611
 20
1597.25598
 10
415.530048
 20
1597.284999
 10
415.637752
 20
1597.397714
 10
415.656582
 20
1597.55107
 10
415.579346
 20
1597.686493
 10
415.435545
 20
1597.752253
  0
LWPOLYLINE
  5
1C8
100
AcDbEntity
  8
025-DWG
100
AcDbPolyline
 90
        3
 70
     0
 43
0.0
 10
415.211466
 20
1598.031644
 10
415.307565
 20
1598.197949
 10
415.49648
 20
1598.248526
  0
LWPOLYLINE
  5
1C9
100
AcDbEntity
  8
025-DWG
100
AcDbPolyline
 90
        3
 70
     0
 43
0.0
 10
415.557415
 20
1598.744799
 10
415.386347
 20
1598.839577
 10
415.333335
 20
1599.02419
  0
LWPOLYLINE
  5
1CA
100
AcDbEntity
  8
025-DWG
100
AcDbPolyline
 90
        7
 70
     0
 43
0.0
 10
415.49648
 20
1598.248526
 10
415.627835
 20
1598.266143
 10
415.732158
 20
1598.345528
 10
415.781494
 20
1598.465409
 10
415.762625
 20
1598.593664
 10
415.680606
 20
1598.695928
 10
415.557415
 20
1598.744799
  0
LWPOLYLINE
  5
1CB
100
AcDbEntity
  8
025-DWG
100
AcDbPolyline
 90
        4
 70
     0
 43
0.0
 10
415.333335
 20
1599.02419
 10
415.382672
 20
1599.144071
 10
415.486994
 20
1599.223456
 10
415.618349
 20
1599.241073
  0
LWPOLYLINE
  5
1CC
100
AcDbEntity
  8
025-DWG
100
AcDbPolyline
 90
        7
 70
     0
 43
0.0
 10
415.618349
 20
1599.241073
 10
415.749705
 20
1599.258689
 10
415.854027
 20
1599.338074
 10
415.903364
 20
1599.457955
 10
415.884495
 20
1599.58621
 10
415.802476
 20
1599.688474
 10
415.679284
 20
1599.737346
  0
LINE
  5
1CD
100
AcDbEntity
  8
025-DWG
100
AcDbLine
 10
415.435545
 20
1597.752253
 30
0.0
 11
415.684334
 21
1597.721706
 31
0.0
  0
LINE
  5
1CE
100
AcDbEntity
  8
025-DWG
100
AcDbLine
 10
415.374611
 20
1597.25598
 30
0.0
 11
415.622271
 21
1597.225571
 31
0.0
  0
LINE
  5
1CF
100
AcDbEntity
  8
025-DWG
100
AcDbLine
 10
415.557415
 20
1598.744799
 30
0.0
 11
415.80846
 21
1598.713975
 31
0.0
  0
LINE
  5
1D0
100
AcDbEntity
  8
025-DWG
100
AcDbLine
 10
415.49648
 20
1598.248526
 30
0.0
 11
415.746397
 21
1598.21784
 31
0.0
  0
LINE
  5
1D1
100
AcDbEntity
  8
025-DWG
100
AcDbLine
 10
415.618349
 20
1599.241073
 30
0.0
 11
415.870523
 21
1599.21011
 31
0.0
  0
LWPOLYLINE
  5
1D2
100
AcDbEntity
  8
025-DWG
100
AcDbPolyline
 90
        3
 70
     0
 43
0.0
 10
415.313676
 20
1596.759707
 10
415.142608
 20
1596.854485
 10
415.089596
 20
1597.039098
  0
LINE
  5
1D3
100
AcDbEntity
  8
025-DWG
100
AcDbLine
 10
413.657857
 20
1593.688609
 30
0.0
 11
414.385987
 21
1599.618751
 31
0.0
  0
LINE
  5
1D4
100
AcDbEntity
  8
025-DWG
100
AcDbLine
 10
414.650063
 20
1593.566782
 30
0.0
 11
414.908648
 21
1593.535031
 31
0.0
  0
LINE
  5
1D5
100
AcDbEntity
  8
025-DWG
100
AcDbLine
 10
413.297451
 20
1592.876397
 30
0.0
 11
414.053537
 21
1592.222449
 31
0.0
  0
ARC
  5
1D6
100
AcDbEntity
  8
025-DWG
100
AcDbCircle
 10
412.143387
 20
1593.874563
 30
0.0
 40
1.525843
100
AcDbArc
 50
319.143028
 51
353.0
  0
LINE
  5
1D7
100
AcDbEntity
  8
025-DWG
100
AcDbLine
 10
413.657857
 20
1593.688609
 30
0.0
 11
414.650063
 21
1593.566782
 31
0.0
  0
ARC
  5
1D8
100
AcDbEntity
  8
025-DWG
100
AcDbCircle
 10
412.143387
 20
1593.874563
 30
0.0
 40
2.5255
100
AcDbArc
 50
319.143028
 51
353.0
  0
LINE
  5
1D9
100
AcDbEntity
  8
025-DWG
100
AcDbLine
 10
414.053537
 20
1592.222449
 30
0.0
 11
414.248019
 21
1592.054238
 31
0.0
  0
LINE
  5
1DA
100
AcDbEntity
  8
025-DWG
100
AcDbLine
 10
415.406559
 20
1599.727945
 30
0.0
 11
414.650063
 21
1593.566782
 31
0.0
  0
LINE
  5
1DB
100
AcDbEntity
  8
035-DWG
100
AcDbLine
 10
415.315178
 20
1594.249331
 30
0.0
 11
414.992332
 21
1594.204013
 31
0.0
  0
LINE
  5
1DC
100
AcDbEntity
  8
035-DWG
100
AcDbLine
 10
414.992332
 20
1594.204013
 30
0.0
 11
414.908648
 21
1593.535031
 31
0.0
  0
LWPOLYLINE
  5
1DD
100
AcDbEntity
  8
035-DWG
100
AcDbPolyline
 90
        6
 70
     0
 43
0.0
 10
415.311957
 20
1594.744899
 10
415.442104
 20
1594.688283
 10
415.520246
 20
1594.569894
 10
415.521168
 20
1594.427931
 10
415.444575
 20
1594.308199
 10
415.315178
 20
1594.249331
  0
LWPOLYLINE
  5
1DE
100
AcDbEntity
  8
035-DWG
100
AcDbPolyline
 90
        6
 70
     0
 43
0.0
 10
415.37402
 20
1595.241033
 10
415.222233
 20
1595.211566
 10
415.116571
 20
1595.098601
 10
415.097392
 20
1594.945287
 10
415.172023
 20
1594.810185
 10
415.311957
 20
1594.744899
  0
LWPOLYLINE
  5
1DF
100
AcDbEntity
  8
035-DWG
100
AcDbPolyline
 90
        6
 70
     0
 43
0.0
 10
415.436083
 20
1595.737168
 10
415.576017
 20
1595.671882
 10
415.650647
 20
1595.536779
 10
415.631469
 20
1595.383465
 10
415.525807
 20
1595.2705
 10
415.37402
 20
1595.241033
  0
LWPOLYLINE
  5
1E0
100
AcDbEntity
  8
035-DWG
100
AcDbPolyline
 90
        6
 70
     0
 43
0.0
 10
415.498146
 20
1596.233302
 10
415.346359
 20
1596.203835
 10
415.240697
 20
1596.09087
 10
415.221518
 20
1595.937556
 10
415.296149
 20
1595.802454
 10
415.436083
 20
1595.737168
  0
LWPOLYLINE
  5
1E1
100
AcDbEntity
  8
035-DWG
100
AcDbPolyline
 90
        7
 70
     0
 43
0.0
 10
415.560208
 20
1596.729437
 10
415.680127
 20
1596.680967
 10
415.759599
 20
1596.579016
 10
415.777329
 20
1596.4509
 10
415.728568
 20
1596.330949
 10
415.626379
 20
1596.251302
 10
415.498146
 20
1596.233302
  0
LWPOLYLINE
  5
1E2
100
AcDbEntity
  8
035-DWG
100
AcDbPolyline
 90
        6
 70
     0
 43
0.0
 10
415.684334
 20
1597.721706
 10
415.824268
 20
1597.65642
 10
415.898899
 20
1597.521318
 10
415.87972
 20
1597.368004
 10
415.774058
 20
1597.255039
 10
415.622271
 20
1597.225571
  0
LWPOLYLINE
  5
1E3
100
AcDbEntity
  8
035-DWG
100
AcDbPolyline
 90
        6
 70
     0
 43
0.0
 10
415.746397
 20
1598.21784
 10
415.59461
 20
1598.188373
 10
415.488948
 20
1598.075408
 10
415.469769
 20
1597.922094
 10
415.5444
 20
1597.786992
 10
415.684334
 20
1597.721706
  0
LWPOLYLINE
  5
1E4
100
AcDbEntity
  8
035-DWG
100
AcDbPolyline
 90
        7
 70
     0
 43
0.0
 10
415.80846
 20
1598.713975
 10
415.928378
 20
1598.665506
 10
416.00785
 20
1598.563554
 10
416.025581
 20
1598.435438
 10
415.976819
 20
1598.315487
 10
415.874631
 20
1598.235841
 10
415.746397
 20
1598.21784
  0
LWPOLYLINE
  5
1E5
100
AcDbEntity
  8
035-DWG
100
AcDbPolyline
 90
        6
 70
     0
 43
0.0
 10
415.870523
 20
1599.21011
 10
415.718736
 20
1599.180642
 10
415.613074
 20
1599.067677
 10
415.593895
 20
1598.914363
 10
415.668526
 20
1598.779261
 10
415.80846
 20
1598.713975
  0
LWPOLYLINE
  5
1E6
100
AcDbEntity
  8
035-DWG
100
AcDbPolyline
 90
        7
 70
     0
 43
0.0
 10
415.932585
 20
1599.706244
 10
416.052504
 20
1599.657775
 10
416.131976
 20
1599.555823
 10
416.149706
 20
1599.427708
 10
416.100944
 20
1599.307756
 10
415.998756
 20
1599.22811
 10
415.870523
 20
1599.21011
  0
LWPOLYLINE
  5
1E7
100
AcDbEntity
  8
035-DWG
100
AcDbPolyline
 90
        6
 70
     0
 43
0.0
 10
415.622271
 20
1597.225571
 10
415.470485
 20
1597.196104
 10
415.364822
 20
1597.083139
 10
415.345644
 20
1596.929825
 10
415.420275
 20
1596.794723
 10
415.560208
 20
1596.729437
  0
LWPOLYLINE
  5
1E8
100
AcDbEntity
  8
035-DWG
100
AcDbPolyline
 90
        3
 70
     0
 43
0.0
 10
414.908648
 20
1593.535031
 10
414.688411
 20
1592.745525
 10
414.248019
 20
1592.054238
  0
LINE
  5
1E9
100
AcDbEntity
  8
025-DWG
100
AcDbLine
 10
414.745217
 20
1594.234355
 30
0.0
 11
414.992332
 21
1594.204013
 31
0.0
  0
LWPOLYLINE
  5
1EA
100
AcDbEntity
  8
025-DWG
100
AcDbPolyline
 90
        4
 70
     0
 43
0.0
 10
414.845858
 20
1595.054006
 10
414.895194
 20
1595.173887
 10
414.999517
 20
1595.253271
 10
415.130872
 20
1595.270888
  0
LWPOLYLINE
  5
1EB
100
AcDbEntity
  8
025-DWG
100
AcDbPolyline
 90
        3
 70
     0
 43
0.0
 10
415.191807
 20
1595.767161
 10
415.020739
 20
1595.861939
 10
414.967727
 20
1596.046552
  0
LWPOLYLINE
  5
1EC
100
AcDbEntity
  8
025-DWG
100
AcDbPolyline
 90
        6
 70
     0
 43
0.0
 10
415.130872
 20
1595.270888
 10
415.28631
 20
1595.299907
 10
415.394013
 20
1595.412621
 10
415.412843
 20
1595.565978
 10
415.335607
 20
1595.7014
 10
415.191807
 20
1595.767161
  0
LWPOLYLINE
  5
1ED
100
AcDbEntity
  8
025-DWG
100
AcDbPolyline
 90
        3
 70
     0
 43
0.0
 10
414.967727
 20
1596.046552
 10
415.063826
 20
1596.212857
 10
415.252741
 20
1596.263434
  0
LWPOLYLINE
  5
1EE
100
AcDbEntity
  8
025-DWG
100
AcDbPolyline
 90
        6
 70
     0
 43
0.0
 10
415.252741
 20
1596.263434
 10
415.408179
 20
1596.292453
 10
415.515882
 20
1596.405168
 10
415.534712
 20
1596.558524
 10
415.457476
 20
1596.693946
 10
415.313676
 20
1596.759707
  0
LINE
  5
1EF
100
AcDbEntity
  8
025-DWG
100
AcDbLine
 10
414.745217
 20
1594.234355
 30
0.0
 11
415.075922
 21
1594.278708
 31
0.0
  0
LWPOLYLINE
  5
1F0
100
AcDbEntity
  8
025-DWG
100
AcDbPolyline
 90
        3
 70
     0
 43
0.0
 10
415.069937
 20
1594.774615
 10
414.898869
 20
1594.869393
 10
414.845858
 20
1595.054006
  0
LWPOLYLINE
  5
1F1
100
AcDbEntity
  8
025-DWG
100
AcDbPolyline
 90
        6
 70
     0
 43
0.0
 10
415.075922
 20
1594.278708
 10
415.208249
 20
1594.337216
 10
415.286117
 20
1594.456792
 10
415.284402
 20
1594.598852
 10
415.203658
 20
1594.717561
 10
415.069937
 20
1594.774615
  0
LINE
  5
1F2
100
AcDbEntity
  8
025-DWG
100
AcDbLine
 10
415.069937
 20
1594.774615
 30
0.0
 11
415.311957
 21
1594.744899
 31
0.0
  0
LINE
  5
1F3
100
AcDbEntity
  8
025-DWG
100
AcDbLine
 10
415.075922
 20
1594.278708
 30
0.0
 11
415.315178
 21
1594.249331
 31
0.0
  0
LINE
  5
1F4
100
AcDbEntity
  8
025-DWG
100
AcDbLine
 10
415.191807
 20
1595.767161
 30
0.0
 11
415.436083
 21
1595.737168
 31
0.0
  0
LINE
  5
1F5
100
AcDbEntity
  8
025-DWG
100
AcDbLine
 10
415.130872
 20
1595.270888
 30
0.0
 11
415.37402
 21
1595.241033
 31
0.0
  0
LINE
  5
1F6
100
AcDbEntity
  8
025-DWG
100
AcDbLine
 10
415.313676
 20
1596.759707
 30
0.0
 11
415.560208
 21
1596.729437
 31
0.0
  0
LINE
  5
1F7
100
AcDbEntity
  8
025-DWG
100
AcDbLine
 10
415.252741
 20
1596.263434
 30
0.0
 11
415.498146
 21
1596.233302
 31
0.0
  0
LWPOLYLINE
  5
1F8
100
AcDbEntity
  8
025-DWG
100
AcDbPolyline
 90
        3
 70
     0
 43
0.0
 10
415.089596
 20
1597.039098
 10
415.185695
 20
1597.205403
 10
415.374611
 20
1597.25598
  0
LWPOLYLINE
  5
1F9
100
AcDbEntity
  8
025-DWG
100
AcDbPolyline
 90
        4
 70
     0
 43
0.0
 10
415.435545
 20
1597.752253
 10
415.312354
 20
1597.801125
 10
415.230335
 20
1597.903389
 10
415.211466
 20
1598.031644
  0
LWPOLYLINE
  5
1FA
100
AcDbEntity
  8
025-DWG
100
AcDbPolyline
 90
        6
 70
     0
 43
0.0
 10
415.374611
 20
1597.25598
 10
415.530048
 20
1597.284999
 10
415.637752
 20
1597.397714
 10
415.656582
 20
1597.55107
 10
415.579346
 20
1597.686493
 10
415.435545
 20
1597.752253
  0
LWPOLYLINE
  5
1FB
100
AcDbEntity
  8
025-DWG
100
AcDbPolyline
 90
        3
 70
     0
 43
0.0
 10
415.211466
 20
1598.031644
 10
415.307565
 20
1598.197949
 10
415.49648
 20
1598.248526
  0
LWPOLYLINE
  5
1FC
100
AcDbEntity
  8
025-DWG
100
AcDbPolyline
 90
        3
 70
     0
 43
0.0
 10
415.557415
 20
1598.744799
 10
415.386347
 20
1598.839577
 10
415.333335
 20
1599.02419
  0
LWPOLYLINE
  5
1FD
100
AcDbEntity
  8
025-DWG
100
AcDbPolyline
 90
        7
 70
     0
 43
0.0
 10
415.49648
 20
1598.248526
 10
415.627835
 20
1598.266143
 10
415.732158
 20
1598.345528
 10
415.781494
 20
1598.465409
 10
415.762625
 20
1598.593664
 10
415.680606
 20
1598.695928
 10
415.557415
 20
1598.744799
  0
LWPOLYLINE
  5
1FE
100
AcDbEntity
  8
025-DWG
100
AcDbPolyline
 90
        4
 70
     0
 43
0.0
 10
415.333335
 20
1599.02419
 10
415.382672
 20
1599.144071
 10
415.486994
 20
1599.223456
 10
415.618349
 20
1599.241073
  0
LWPOLYLINE
  5
1FF
100
AcDbEntity
  8
025-DWG
100
AcDbPolyline
 90
        7
 70
     0
 43
0.0
 10
415.618349
 20
1599.241073
 10
415.749705
 20
1599.258689
 10
415.854027
 20
1599.338074
 10
415.903364
 20
1599.457955
 10
415.884495
 20
1599.58621
 10
415.802476
 20
1599.688474
 10
415.679284
 20
1599.737346
  0
LINE
  5
200
100
AcDbEntity
  8
025-DWG
100
AcDbLine
 10
415.435545
 20
1597.752253
 30
0.0
 11
415.684334
 21
1597.721706
 31
0.0
  0
LINE
  5
201
100
AcDbEntity
  8
025-DWG
100
AcDbLine
 10
415.374611
 20
1597.25598
 30
0.0
 11
415.622271
 21
1597.225571
 31
0.0
  0
LINE
  5
202
100
AcDbEntity
  8
025-DWG
100
AcDbLine
 10
415.557415
 20
1598.744799
 30
0.0
 11
415.80846
 21
1598.713975
 31
0.0
  0
LINE
  5
203
100
AcDbEntity
  8
025-DWG
100
AcDbLine
 10
415.49648
 20
1598.248526
 30
0.0
 11
415.746397
 21
1598.21784
 31
0.0
  0
LINE
  5
204
100
AcDbEntity
  8
025-DWG
100
AcDbLine
 10
415.618349
 20
1599.241073
 30
0.0
 11
415.870523
 21
1599.21011
 31
0.0
  0
LWPOLYLINE
  5
205
100
AcDbEntity
  8
025-DWG
100
AcDbPolyline
 90
        3
 70
     0
 43
0.0
 10
415.313676
 20
1596.759707
 10
415.142608
 20
1596.854485
 10
415.089596
 20
1597.039098
  0
LINE
  5
206
100
AcDbEntity
  8
025-DWG
100
AcDbLine
 10
413.657857
 20
1593.688609
 30
0.0
 11
414.385987
 21
1599.618751
 31
0.0
  0
LINE
  5
207
100
AcDbEntity
  8
025-DWG
100
AcDbLine
 10
414.650063
 20
1593.566782
 30
0.0
 11
414.908648
 21
1593.535031
 31
0.0
  0
LINE
  5
208
100
AcDbEntity
  8
025-DWG
100
AcDbLine
 10
413.297451
 20
1592.876397
 30
0.0
 11
414.053537
 21
1592.222449
 31
0.0
  0
ARC
  5
209
100
AcDbEntity
  8
025-DWG
100
AcDbCircle
 10
412.143387
 20
1593.874563
 30
0.0
 40
1.525843
100
AcDbArc
 50
319.143028
 51
353.0
  0
LINE
  5
20A
100
AcDbEntity
  8
025-DWG
100
AcDbLine
 10
413.657857
 20
1593.688609
 30
0.0
 11
414.650063
 21
1593.566782
 31
0.0
  0
ARC
  5
20B
100
AcDbEntity
  8
025-DWG
100
AcDbCircle
 10
412.143387
 20
1593.874563
 30
0.0
 40
2.5255
100
AcDbArc
 50
319.143028
 51
353.0
  0
LINE
  5
20C
100
AcDbEntity
  8
025-DWG
100
AcDbLine
 10
414.053537
 20
1592.222449
 30
0.0
 11
414.248019
 21
1592.054238
 31
0.0
  0
LINE
  5
20D
100
AcDbEntity
  8
025-DWG
100
AcDbLine
 10
415.406559
 20
1599.727945
 30
0.0
 11
414.650063
 21
1593.566782
 31
0.0
  0
CIRCLE
  5
20E
100
AcDbEntity
  8
035-DWG
100
AcDbCircle
 10
393.63464
 20
1813.35196
 30
0.0
 40
30.0
  0
CIRCLE
  5
20F
100
AcDbEntity
  8
035-DWG
100
AcDbCircle
 10
393.63464
 20
1813.35196
 30
0.0
 40
33.5
  0
LINE
  5
210
100
AcDbEntity
  8
035-DWG
100
AcDbLine
 10
219.801096
 20
1834.693595
 30
0.0
 11
247.181774
 21
1839.294512
 31
0.0
  0
LINE
  5
211
100
AcDbEntity
  8
035-DWG
100
AcDbLine
 10
219.751035
 20
1835.870392
 30
0.0
 11
247.132941
 21
1840.502067
 31
0.0
  0
LINE
  5
212
100
AcDbEntity
  8
035-DWG
100
AcDbLine
 10
210.938747
 20
1835.915662
 30
0.0
 11
233.79129
 21
1840.513705
 31
0.0
  0
ARC
  5
213
100
AcDbEntity
  8
035-DWG
100
AcDbCircle
 10
211.372701
 20
1793.347925
 30
0.0
 40
2.2
100
AcDbArc
 50
180.0
 51
258.623705
  0
ARC
  5
214
100
AcDbEntity
  8
035-DWG
100
AcDbCircle
 10
220.117955
 20
1793.405605
 30
0.0
 40
2.2
100
AcDbArc
 50
180.0
 51
260.399244
  0
LINE
  5
215
100
AcDbEntity
  8
035-DWG
100
AcDbLine
 10
219.801096
 20
1792.413216
 30
0.0
 11
247.181774
 21
1787.8123
 31
0.0
  0
LINE
  5
216
100
AcDbEntity
  8
035-DWG
100
AcDbLine
 10
234.435761
 20
1786.152664
 30
0.0
 11
243.02198
 21
1772.766707
 31
0.0
  0
LINE
  5
217
100
AcDbEntity
  8
025-DWG
100
AcDbLine
 10
234.435761
 20
1786.152664
 30
0.0
 11
247.900154
 21
1785.976038
 31
0.0
  0
LINE
  5
218
100
AcDbEntity
  8
025-DWG
100
AcDbLine
 10
233.79129
 20
1786.593106
 30
0.0
 11
247.132941
 21
1786.604744
 31
0.0
  0
LINE
  5
219
100
AcDbEntity
  8
035-DWG
100
AcDbLine
 10
219.751035
 20
1791.236419
 30
0.0
 11
247.132941
 21
1786.604744
 31
0.0
  0
ARC
  5
21A
100
AcDbEntity
  8
035-DWG
100
AcDbCircle
 10
233.594038
 20
1785.612754
 30
0.0
 40
1.0
100
AcDbArc
 50
32.677527
 51
78.623705
  0
LINE
  5
21B
100
AcDbEntity
  8
025-DWG
100
AcDbLine
 10
210.938747
 20
1791.191149
 30
0.0
 11
219.751035
 21
1791.236419
 31
0.0
  0
LINE
  5
21C
100
AcDbEntity
  8
035-DWG
100
AcDbLine
 10
210.938747
 20
1791.191149
 30
0.0
 11
233.79129
 21
1786.593106
 31
0.0
  0
LINE
  5
21D
100
AcDbEntity
  8
035-DWG
100
AcDbLine
 10
247.900154
 20
1785.976038
 30
0.0
 11
251.334237
 21
1776.998922
 31
0.0
  0
LINE
  5
21E
100
AcDbEntity
  8
035-DWG
100
AcDbLine
 10
248.892017
 20
1786.374269
 30
0.0
 11
252.116919
 21
1777.227893
 31
0.0
  0
POLYLINE
  5
21F
100
AcDbEntity
  8
035-DWG
100
AcDb2dPolyline
 66
     1
 10
0.0
 20
0.0
 30
0.0
  0
VERTEX
  5
220
100
AcDbEntity
  8
035-DWG
100
AcDbVertex
100
AcDb2dVertex
 10
247.260067
 20
1772.868994
 30
0.0
 42
0.119813
  0
VERTEX
  5
221
100
AcDbEntity
  8
035-DWG
100
AcDbVertex
100
AcDb2dVertex
 10
250.098806
 20
1774.283647
 30
0.0
 42
0.135368
  0
VERTEX
  5
222
100
AcDbEntity
  8
035-DWG
100
AcDbVertex
100
AcDb2dVertex
 10
252.116919
 20
1777.227893
 30
0.0
  0
SEQEND
  5
223
100
AcDbEntity
  8
035-DWG
  0
LINE
  5
224
100
AcDbEntity
  8
035-DWG
100
AcDbLine
 10
251.334237
 20
1776.998922
 30
0.0
 11
252.116919
 21
1777.227893
 31
0.0
  0
ARC
  5
225
100
AcDbEntity
  8
035-DWG
100
AcDbCircle
 10
246.966159
 20
1785.618751
 30
0.0
 40
1.0
100
AcDbArc
 50
20.933725
 51
80.399244
  0
ARC
  5
226
100
AcDbEntity
  8
035-DWG
100
AcDbCircle
 10
246.817208
 20
1785.642716
 30
0.0
 40
2.2
100
AcDbArc
 50
19.422035
 51
80.461406
  0
POLYLINE
  5
227
100
AcDbEntity
  8
035-DWG
100
AcDb2dPolyline
 66
     1
 10
0.0
 20
0.0
 30
0.0
 70
     2
  0
VERTEX
  5
228
100
AcDbEntity
  8
035-DWG
100
AcDbVertex
100
AcDb2dVertex
 10
243.02198
 20
1772.766707
 30
0.0
 42
0.057529
  0
VERTEX
  5
229
100
AcDbEntity
  8
035-DWG
100
AcDbVertex
100
AcDb2dVertex
 10
244.536179
 20
1772.487743
 30
0.0
 42
0.057529
 70
     1
  0
VERTEX
  5
22A
100
AcDbEntity
  8
035-DWG
100
AcDbVertex
100
AcDb2dVertex
 10
246.07411
 20
1772.561119
 30
0.0
 42
0.135368
  0
VERTEX
  5
22B
100
AcDbEntity
  8
035-DWG
100
AcDbVertex
100
AcDb2dVertex
 10
249.316124
 20
1774.054676
 30
0.0
 42
0.135368
 70
     1
  0
VERTEX
  5
22C
100
AcDbEntity
  8
035-DWG
100
AcDbVertex
100
AcDb2dVertex
 10
251.334237
 20
1776.998922
 30
0.0
  0
SEQEND
  5
22D
100
AcDbEntity
  8
035-DWG
  0
ARC
  5
22E
100
AcDbEntity
  8
035-DWG
100
AcDbCircle
 10
211.372701
 20
1833.758886
 30
0.0
 40
2.2
100
AcDbArc
 50
101.376295
 51
180.0
  0
ARC
  5
22F
100
AcDbEntity
  8
035-DWG
100
AcDbCircle
 10
219.966807
 20
1833.707421
 30
0.0
 40
1.0
100
AcDbArc
 50
99.538594
 51
180.0
  0
ARC
  5
230
100
AcDbEntity
  8
035-DWG
100
AcDbCircle
 10
220.117955
 20
1833.701206
 30
0.0
 40
2.2
100
AcDbArc
 50
99.600756
 51
180.0
  0
LINE
  5
231
100
AcDbEntity
  8
025-DWG
100
AcDbLine
 10
209.172701
 20
1833.758886
 30
0.0
 11
217.917955
 21
1833.701206
 31
0.0
  0
LINE
  5
232
100
AcDbEntity
  8
025-DWG
100
AcDbLine
 10
210.938747
 20
1835.915662
 30
0.0
 11
219.751035
 21
1835.870392
 31
0.0
  0
LINE
  5
233
100
AcDbEntity
  8
025-DWG
100
AcDbLine
 10
209.172701
 20
1793.347925
 30
0.0
 11
217.917955
 21
1793.405605
 31
0.0
  0
LINE
  5
234
100
AcDbEntity
  8
035-DWG
100
AcDbLine
 10
209.172701
 20
1793.347925
 30
0.0
 11
209.172701
 21
1833.758886
 31
0.0
  0
LINE
  5
235
100
AcDbEntity
  8
035-DWG
100
AcDbLine
 10
217.917955
 20
1793.405605
 30
0.0
 11
217.917955
 21
1833.701206
 31
0.0
  0
LINE
  5
236
100
AcDbEntity
  8
035-DWG
100
AcDbLine
 10
218.966807
 20
1793.39939
 30
0.0
 11
218.966807
 21
1833.707421
 31
0.0
  0
ARC
  5
237
100
AcDbEntity
  8
035-DWG
100
AcDbCircle
 10
219.966807
 20
1793.39939
 30
0.0
 40
1.0
100
AcDbArc
 50
180.0
 51
260.461406
  0
LINE
  5
238
100
AcDbEntity
  8
035-DWG
100
AcDbLine
 10
234.435761
 20
1840.954147
 30
0.0
 11
243.02198
 21
1854.340104
 31
0.0
  0
LINE
  5
239
100
AcDbEntity
  8
025-DWG
100
AcDbLine
 10
233.79129
 20
1840.513705
 30
0.0
 11
247.132941
 21
1840.502067
 31
0.0
  0
LINE
  5
23A
100
AcDbEntity
  8
025-DWG
100
AcDbLine
 10
234.435761
 20
1840.954147
 30
0.0
 11
247.900154
 21
1841.130773
 31
0.0
  0
ARC
  5
23B
100
AcDbEntity
  8
035-DWG
100
AcDbCircle
 10
233.594038
 20
1841.494058
 30
0.0
 40
1.0
100
AcDbArc
 50
281.376295
 51
327.322473
  0
POLYLINE
  5
23C
100
AcDbEntity
  8
035-DWG
100
AcDb2dPolyline
 66
     1
 10
0.0
 20
0.0
 30
0.0
  0
VERTEX
  5
23D
100
AcDbEntity
  8
035-DWG
100
AcDbVertex
100
AcDb2dVertex
 10
247.260067
 20
1854.237817
 30
0.0
 42
-0.119813
  0
VERTEX
  5
23E
100
AcDbEntity
  8
035-DWG
100
AcDbVertex
100
AcDb2dVertex
 10
250.098806
 20
1852.823165
 30
0.0
 42
-0.135368
  0
VERTEX
  5
23F
100
AcDbEntity
  8
035-DWG
100
AcDbVertex
100
AcDb2dVertex
 10
252.116919
 20
1849.878918
 30
0.0
  0
SEQEND
  5
240
100
AcDbEntity
  8
035-DWG
  0
LINE
  5
241
100
AcDbEntity
  8
035-DWG
100
AcDbLine
 10
251.334237
 20
1850.107889
 30
0.0
 11
252.116919
 21
1849.878918
 31
0.0
  0
ARC
  5
242
100
AcDbEntity
  8
035-DWG
100
AcDbCircle
 10
246.966159
 20
1841.488061
 30
0.0
 40
1.0
100
AcDbArc
 50
279.600756
 51
339.066275
  0
LINE
  5
243
100
AcDbEntity
  8
035-DWG
100
AcDbLine
 10
248.892017
 20
1840.732542
 30
0.0
 11
252.116919
 21
1849.878918
 31
0.0
  0
LINE
  5
244
100
AcDbEntity
  8
035-DWG
100
AcDbLine
 10
247.900154
 20
1841.130773
 30
0.0
 11
251.334237
 21
1850.107889
 31
0.0
  0
ARC
  5
245
100
AcDbEntity
  8
035-DWG
100
AcDbCircle
 10
246.817208
 20
1841.464095
 30
0.0
 40
2.2
100
AcDbArc
 50
279.538594
 51
340.577965
  0
POLYLINE
  5
246
100
AcDbEntity
  8
035-DWG
100
AcDb2dPolyline
 66
     1
 10
0.0
 20
0.0
 30
0.0
 70
     2
  0
VERTEX
  5
247
100
AcDbEntity
  8
035-DWG
100
AcDbVertex
100
AcDb2dVertex
 10
243.02198
 20
1854.340104
 30
0.0
 42
-0.057529
  0
VERTEX
  5
248
100
AcDbEntity
  8
035-DWG
100
AcDbVertex
100
AcDb2dVertex
 10
244.536179
 20
1854.619068
 30
0.0
 42
-0.057529
 70
     1
  0
VERTEX
  5
249
100
AcDbEntity
  8
035-DWG
100
AcDbVertex
100
AcDb2dVertex
 10
246.07411
 20
1854.545692
 30
0.0
 42
-0.135368
  0
VERTEX
  5
24A
100
AcDbEntity
  8
035-DWG
100
AcDbVertex
100
AcDb2dVertex
 10
249.316124
 20
1853.052136
 30
0.0
 42
-0.135368
 70
     1
  0
VERTEX
  5
24B
100
AcDbEntity
  8
035-DWG
100
AcDbVertex
100
AcDb2dVertex
 10
251.334237
 20
1850.107889
 30
0.0
  0
SEQEND
  5
24C
100
AcDbEntity
  8
035-DWG
  0
LWPOLYLINE
  5
24D
100
AcDbEntity
  8
025-DWG
  6
CONTINUOUS
100
AcDbPolyline
 90
       15
 70
   128
 43
0.0
 10
659.256797
 20
1765.410194
 10
660.514734
 20
1772.064119
 10
661.591672
 20
1778.793519
 10
662.482543
 20
1785.582262
 10
663.182278
 20
1792.414217
 10
663.69898
 20
1799.483779
 10
664.008494
 20
1806.586726
 10
664.109607
 20
1813.70285
 10
664.001108
 20
1820.811948
 10
663.696463
 20
1827.673367
 10
663.197766
 20
1834.512812
 10
662.507733
 20
1841.312541
 10
661.613139
 20
1848.170461
 10
660.527615
 20
1854.970553
 10
659.256797
 20
1861.696617
  0
LWPOLYLINE
  5
24E
100
AcDbEntity
  8
025-DWG
  6
CONTINUOUS
100
AcDbPolyline
 90
       12
 70
   128
 43
0.0
 10
647.303041
 20
1849.149469
 10
648.235894
 20
1842.669956
 10
648.984186
 20
1836.141065
 10
649.54771
 20
1829.52808
 10
649.918455
 20
1822.886928
 10
650.096178
 20
1816.083208
 10
650.070031
 20
1809.274779
 10
649.837343
 20
1802.423122
 10
649.398937
 20
1795.592384
 10
648.851686
 20
1789.678872
 10
648.152096
 20
1783.796636
 10
647.303041
 20
1777.957343
  0
LWPOLYLINE
  5
24F
100
AcDbEntity
  8
025-DWG
  6
CONTINUOUS
100
AcDbPolyline
 90
       12
 70
   128
 43
0.0
 10
623.94308
 20
1850.721072
 10
625.280944
 20
1842.660616
 10
626.297852
 20
1834.505864
 10
626.984975
 20
1826.292599
 10
627.285462
 20
1819.92506
 10
627.385331
 20
1813.539536
 10
627.284586
 20
1807.154037
 10
626.983229
 20
1800.786577
 10
626.501117
 20
1794.64773
 10
625.834428
 20
1788.541685
 10
624.979218
 20
1782.437138
 10
623.94308
 20
1776.385739
  0
LWPOLYLINE
  5
250
100
AcDbEntity
  8
025-DWG
  6
CONTINUOUS
100
AcDbPolyline
 90
       12
 70
   128
 43
0.0
 10
646.401706
 20
1778.263117
 10
647.326852
 20
1784.657087
 10
648.069954
 20
1791.10005
 10
648.630801
 20
1797.626265
 10
649.001428
 20
1804.180568
 10
649.181667
 20
1810.895617
 10
649.160681
 20
1817.615615
 10
648.935846
 20
1824.378605
 10
648.507922
 20
1831.121237
 10
647.960734
 20
1837.064671
 10
647.25766
 20
1842.976208
 10
646.401706
 20
1848.843695
  0
LWPOLYLINE
  5
251
100
AcDbEntity
  8
035-DWG
  6
CONTINUOUS
100
AcDbPolyline
 90
       15
 70
   128
 43
0.0
 10
660.321877
 20
1861.696511
 10
661.585536
 20
1855.042595
 10
662.667374
 20
1848.313204
 10
663.562297
 20
1841.52447
 10
664.265214
 20
1834.692524
 10
664.784266
 20
1827.622971
 10
665.095187
 20
1820.520034
 10
665.196759
 20
1813.403919
 10
665.087766
 20
1806.294832
 10
664.781734
 20
1799.433435
 10
664.280769
 20
1792.594014
 10
663.587596
 20
1785.794307
 10
662.688935
 20
1778.936411
 10
661.598473
 20
1772.136341
 10
660.321877
 20
1765.4103
  0
LINE
  5
252
100
AcDbEntity
  8
035-DWG
100
AcDbLine
 10
567.468185
 20
1834.693595
 30
0.0
 11
540.087506
 21
1839.294512
 31
0.0
  0
LINE
  5
253
100
AcDbEntity
  8
035-DWG
100
AcDbLine
 10
567.518245
 20
1835.870392
 30
0.0
 11
540.13634
 21
1840.502067
 31
0.0
  0
LINE
  5
254
100
AcDbEntity
  8
035-DWG
100
AcDbLine
 10
576.330534
 20
1835.915662
 30
0.0
 11
553.477991
 21
1840.513705
 31
0.0
  0
LWPOLYLINE
  5
255
100
AcDbEntity
  8
025-DWG
  6
CONTINUOUS
100
AcDbPolyline
 90
       12
 70
   128
 43
0.0
 10
621.270538
 20
1776.445641
 10
622.591535
 20
1784.498332
 10
623.595374
 20
1792.645155
 10
624.273347
 20
1800.850363
 10
624.569511
 20
1807.211608
 10
624.667453
 20
1813.590776
 10
624.567179
 20
1819.969875
 10
624.268695
 20
1826.330909
 10
623.79272
 20
1832.451977
 10
623.135062
 20
1838.540379
 10
622.29185
 20
1844.627211
 10
621.270538
 20
1850.66117
  0
LINE
  5
256
100
AcDbEntity
  8
025-DWG
  6
CONTINUOUS
100
AcDbLine
 10
605.317389
 20
1774.783232
 30
0.0
 11
621.270538
 21
1776.445641
 31
0.0
  0
LINE
  5
257
100
AcDbEntity
  8
035-DWG
  6
CONTINUOUS
100
AcDbLine
 10
658.392379
 20
1763.466149
 30
0.0
 11
599.521063
 21
1750.953618
 31
0.0
  0
LWPOLYLINE
  5
258
100
AcDbEntity
  8
025-DWG
  6
CONTINUOUS
100
AcDbPolyline
 90
        3
 70
   128
 43
0.0
 10
599.774102
 20
1751.790291
 10
629.824531
 20
1758.204068
 10
658.099186
 20
1764.238823
  0
LINE
  5
259
100
AcDbEntity
  8
025-DWG
  6
CONTINUOUS
100
AcDbLine
 10
604.867923
 20
1772.409224
 30
0.0
 11
644.635712
 21
1776.588987
 31
0.0
  0
LINE
  5
25A
100
AcDbEntity
  8
025-DWG
  6
CONTINUOUS
100
AcDbLine
 10
644.654191
 20
1775.435641
 30
0.0
 11
604.630612
 21
1771.211365
 31
0.0
  0
ARC
  5
25B
100
AcDbEntity
  8
035-DWG
100
AcDbCircle
 10
567.151325
 20
1793.405605
 30
0.0
 40
2.2
100
AcDbArc
 50
279.600756
 51
0.0
  0
ARC
  5
25C
100
AcDbEntity
  8
035-DWG
100
AcDbCircle
 10
575.89658
 20
1793.347925
 30
0.0
 40
2.2
100
AcDbArc
 50
281.376295
 51
0.0
  0
LINE
  5
25D
100
AcDbEntity
  8
035-DWG
100
AcDbLine
 10
567.468185
 20
1792.413216
 30
0.0
 11
540.087506
 21
1787.8123
 31
0.0
  0
ARC
  5
25E
100
AcDbEntity
  8
035-DWG
100
AcDbCircle
 10
553.675243
 20
1785.612754
 30
0.0
 40
1.0
100
AcDbArc
 50
101.376295
 51
147.322473
  0
LINE
  5
25F
100
AcDbEntity
  8
035-DWG
100
AcDbLine
 10
552.83352
 20
1786.152664
 30
0.0
 11
544.247301
 21
1772.766707
 31
0.0
  0
LINE
  5
260
100
AcDbEntity
  8
025-DWG
100
AcDbLine
 10
576.330534
 20
1791.191149
 30
0.0
 11
567.518245
 21
1791.236419
 31
0.0
  0
LINE
  5
261
100
AcDbEntity
  8
035-DWG
100
AcDbLine
 10
576.330534
 20
1791.191149
 30
0.0
 11
553.477991
 21
1786.593106
 31
0.0
  0
ARC
  5
262
100
AcDbEntity
  8
035-DWG
100
AcDbCircle
 10
540.303121
 20
1785.618751
 30
0.0
 40
1.0
100
AcDbArc
 50
99.600756
 51
159.066275
  0
LINE
  5
263
100
AcDbEntity
  8
025-DWG
100
AcDbLine
 10
553.477991
 20
1786.593106
 30
0.0
 11
540.13634
 21
1786.604744
 31
0.0
  0
LINE
  5
264
100
AcDbEntity
  8
035-DWG
100
AcDbLine
 10
567.518245
 20
1791.236419
 30
0.0
 11
540.13634
 21
1786.604744
 31
0.0
  0
LINE
  5
265
100
AcDbEntity
  8
025-DWG
100
AcDbLine
 10
552.83352
 20
1786.152664
 30
0.0
 11
539.369127
 21
1785.976038
 31
0.0
  0
ARC
  5
266
100
AcDbEntity
  8
035-DWG
100
AcDbCircle
 10
540.452072
 20
1785.642716
 30
0.0
 40
2.2
100
AcDbArc
 50
99.538594
 51
160.577965
  0
LINE
  5
267
100
AcDbEntity
  8
035-DWG
100
AcDbLine
 10
539.369127
 20
1785.976038
 30
0.0
 11
535.935044
 21
1776.998922
 31
0.0
  0
POLYLINE
  5
268
100
AcDbEntity
  8
035-DWG
100
AcDb2dPolyline
 66
     1
 10
0.0
 20
0.0
 30
0.0
 70
     2
  0
VERTEX
  5
269
100
AcDbEntity
  8
035-DWG
100
AcDbVertex
100
AcDb2dVertex
 10
544.247301
 20
1772.766707
 30
0.0
 42
-0.057529
  0
VERTEX
  5
26A
100
AcDbEntity
  8
035-DWG
100
AcDbVertex
100
AcDb2dVertex
 10
542.733102
 20
1772.487743
 30
0.0
 42
-0.057529
 70
     1
  0
VERTEX
  5
26B
100
AcDbEntity
  8
035-DWG
100
AcDbVertex
100
AcDb2dVertex
 10
541.195171
 20
1772.561119
 30
0.0
 42
-0.135368
  0
VERTEX
  5
26C
100
AcDbEntity
  8
035-DWG
100
AcDbVertex
100
AcDb2dVertex
 10
537.953157
 20
1774.054676
 30
0.0
 42
-0.135368
 70
     1
  0
VERTEX
  5
26D
100
AcDbEntity
  8
035-DWG
100
AcDbVertex
100
AcDb2dVertex
 10
535.935044
 20
1776.998922
 30
0.0
  0
SEQEND
  5
26E
100
AcDbEntity
  8
035-DWG
  0
LINE
  5
26F
100
AcDbEntity
  8
025-DWG
100
AcDbLine
 10
578.09658
 20
1833.758886
 30
0.0
 11
569.351325
 21
1833.701206
 31
0.0
  0
ARC
  5
270
100
AcDbEntity
  8
035-DWG
100
AcDbCircle
 10
575.89658
 20
1833.758886
 30
0.0
 40
2.2
100
AcDbArc
 50
0.0
 51
78.623705
  0
LINE
  5
271
100
AcDbEntity
  8
025-DWG
100
AcDbLine
 10
578.09658
 20
1793.347925
 30
0.0
 11
569.351325
 21
1793.405605
 31
0.0
  0
LINE
  5
272
100
AcDbEntity
  8
025-DWG
100
AcDbLine
 10
576.330534
 20
1835.915662
 30
0.0
 11
567.518245
 21
1835.870392
 31
0.0
  0
ARC
  5
273
100
AcDbEntity
  8
035-DWG
100
AcDbCircle
 10
567.151325
 20
1833.701206
 30
0.0
 40
2.2
100
AcDbArc
 50
0.0
 51
80.399244
  0
ARC
  5
274
100
AcDbEntity
  8
035-DWG
100
AcDbCircle
 10
567.302473
 20
1833.707421
 30
0.0
 40
1.0
100
AcDbArc
 50
0.0
 51
80.461406
  0
LINE
  5
275
100
AcDbEntity
  8
035-DWG
100
AcDbLine
 10
568.302473
 20
1793.39939
 30
0.0
 11
568.302473
 21
1833.707421
 31
0.0
  0
LINE
  5
276
100
AcDbEntity
  8
035-DWG
100
AcDbLine
 10
569.351325
 20
1793.405605
 30
0.0
 11
569.351325
 21
1833.701206
 31
0.0
  0
ARC
  5
277
100
AcDbEntity
  8
035-DWG
100
AcDbCircle
 10
567.302473
 20
1793.39939
 30
0.0
 40
1.0
100
AcDbArc
 50
279.538594
 51
0.0
  0
LINE
  5
278
100
AcDbEntity
  8
035-DWG
100
AcDbLine
 10
578.09658
 20
1793.347925
 30
0.0
 11
578.09658
 21
1833.758886
 31
0.0
  0
LWPOLYLINE
  5
279
100
AcDbEntity
  8
025-DWG
  6
CONTINUOUS
100
AcDbPolyline
 90
        4
 70
   128
 43
0.0
 10
623.94308
 20
1776.385739
 10
623.790413
 20
1775.577962
 10
623.629815
 20
1774.747008
 10
623.556034
 20
1774.373424
  0
LWPOLYLINE
  5
27A
100
AcDbEntity
  8
025-DWG
  6
CONTINUOUS
100
AcDbPolyline
 90
        5
 70
   128
 43
0.0
 10
644.635712
 20
1776.588987
 10
645.287706
 20
1776.772874
 10
645.835092
 20
1777.158065
 10
646.230624
 20
1777.714494
 10
646.401706
 20
1778.263117
  0
LWPOLYLINE
  5
27B
100
AcDbEntity
  8
025-DWG
  6
CONTINUOUS
100
AcDbPolyline
 90
        5
 70
   128
 43
0.0
 10
647.303041
 20
1777.957343
 10
646.971508
 20
1776.984172
 10
646.332927
 20
1776.179432
 10
645.45875
 20
1775.63621
 10
644.654191
 20
1775.435641
  0
LWPOLYLINE
  5
27C
100
AcDbEntity
  8
025-DWG
  6
CONTINUOUS
100
AcDbPolyline
 90
        9
 70
   128
 43
0.0
 10
644.635712
 20
1776.588987
 10
644.61619
 20
1776.563776
 10
644.602383
 20
1776.493916
 10
644.594926
 20
1776.382623
 10
644.594163
 20
1776.235024
 10
644.600129
 20
1776.057919
 10
644.612548
 20
1775.859465
 10
644.63085
 20
1775.648805
 10
644.654191
 20
1775.435641
  0
LWPOLYLINE
  5
27D
100
AcDbEntity
  8
025-DWG
  6
CONTINUOUS
100
AcDbPolyline
 90
        9
 70
   128
 43
0.0
 10
659.256797
 20
1765.410194
 10
659.454315
 20
1765.372297
 10
659.647284
 20
1765.344077
 10
659.827872
 20
1765.32668
 10
659.988752
 20
1765.320812
 10
660.123396
 20
1765.32671
 10
660.22634
 20
1765.344135
 10
660.293407
 20
1765.37238
 10
660.321877
 20
1765.4103
  0
LWPOLYLINE
  5
27E
100
AcDbEntity
  8
025-DWG
  6
CONTINUOUS
100
AcDbPolyline
 90
        5
 70
   128
 43
0.0
 10
658.099186
 20
1764.238823
 10
658.569007
 20
1764.426606
 10
658.946811
 20
1764.756608
 10
659.197917
 20
1765.200082
 10
659.256797
 20
1765.410194
  0
LWPOLYLINE
  5
27F
100
AcDbEntity
  8
025-DWG
  6
CONTINUOUS
100
AcDbPolyline
 90
        9
 70
   128
 43
0.0
 10
658.099186
 20
1764.238823
 10
658.139675
 20
1764.076922
 10
658.181505
 20
1763.926029
 10
658.223425
 20
1763.790665
 10
658.264179
 20
1763.674884
 10
658.302544
 20
1763.582158
 10
658.337372
 20
1763.515262
 10
658.367619
 20
1763.476203
 10
658.392379
 20
1763.466149
  0
LWPOLYLINE
  5
280
100
AcDbEntity
  8
035-DWG
  6
CONTINUOUS
100
AcDbPolyline
 90
        5
 70
   128
 43
0.0
 10
660.321877
 20
1765.4103
 10
660.014209
 20
1764.621692
 10
659.46051
 20
1763.980552
 10
658.723864
 20
1763.560907
 10
658.392379
 20
1763.466149
  0
LWPOLYLINE
  5
281
100
AcDbEntity
  8
025-DWG
  6
CONTINUOUS
100
AcDbPolyline
 90
        9
 70
   128
 43
0.0
 10
646.401706
 20
1778.263117
 10
646.414488
 20
1778.230633
 10
646.461847
 20
1778.193716
 10
646.542105
 20
1778.153676
 10
646.652413
 20
1778.111932
 10
646.788858
 20
1778.069965
 10
646.946601
 20
1778.029265
 10
647.120046
 20
1777.991275
 10
647.303041
 20
1777.957343
  0
LWPOLYLINE
  5
282
100
AcDbEntity
  8
025-DWG
  6
CONTINUOUS
100
AcDbPolyline
 90
        5
 70
   128
 43
0.0
 10
620.410465
 20
1774.780891
 10
620.977081
 20
1774.719028
 10
621.53303
 20
1774.578443
 10
622.048958
 20
1774.366558
 10
622.279887
 20
1774.239295
  0
LWPOLYLINE
  5
283
100
AcDbEntity
  8
025-DWG
  6
CONTINUOUS
100
AcDbPolyline
 90
        3
 70
   128
 43
0.0
 10
620.514186
 20
1774.083924
 10
620.963202
 20
1774.100994
 10
620.963765
 20
1774.100965
  0
LWPOLYLINE
  5
284
100
AcDbEntity
  8
025-DWG
  6
CONTINUOUS
100
AcDbPolyline
 90
        5
 70
   128
 43
0.0
 10
620.514186
 20
1774.083924
 10
620.386446
 20
1774.254846
 10
620.338368
 20
1774.477059
 10
620.375761
 20
1774.696131
 10
620.410465
 20
1774.780891
  0
LWPOLYLINE
  5
285
100
AcDbEntity
  8
025-DWG
  6
CONTINUOUS
100
AcDbPolyline
 90
        7
 70
   128
 43
0.0
 10
620.410465
 20
1774.780891
 10
620.561729
 20
1775.091795
 10
620.734775
 20
1775.43421
 10
620.912269
 20
1775.776102
 10
621.098824
 20
1776.127864
 10
621.184544
 20
1776.287202
 10
621.270538
 20
1776.445641
  0
LWPOLYLINE
  5
286
100
AcDbEntity
  8
025-DWG
  6
CONTINUOUS
100
AcDbPolyline
 90
        9
 70
   128
 43
0.0
 10
621.270538
 20
1776.445641
 10
621.769382
 20
1776.356552
 10
622.256544
 20
1776.287574
 10
622.711966
 20
1776.241546
 10
623.116899
 20
1776.220363
 10
623.454671
 20
1776.224899
 10
623.711376
 20
1776.254965
 10
623.876444
 20
1776.309324
 10
623.94308
 20
1776.385739
  0
LINE
  5
287
100
AcDbEntity
  8
025-DWG
  6
CONTINUOUS
100
AcDbLine
 10
621.270538
 20
1850.66117
 30
0.0
 11
605.317389
 21
1852.323579
 31
0.0
  0
LINE
  5
288
100
AcDbEntity
  8
035-DWG
  6
CONTINUOUS
100
AcDbLine
 10
599.521063
 20
1876.153193
 30
0.0
 11
658.392379
 21
1863.640662
 31
0.0
  0
LWPOLYLINE
  5
289
100
AcDbEntity
  8
025-DWG
  6
CONTINUOUS
100
AcDbPolyline
 90
        3
 70
   128
 43
0.0
 10
658.099186
 20
1862.867988
 10
629.824531
 20
1868.902743
 10
599.774102
 20
1875.316521
  0
LINE
  5
28A
100
AcDbEntity
  8
025-DWG
  6
CONTINUOUS
100
AcDbLine
 10
644.635712
 20
1850.517824
 30
0.0
 11
604.867923
 21
1854.697587
 31
0.0
  0
LINE
  5
28B
100
AcDbEntity
  8
025-DWG
  6
CONTINUOUS
100
AcDbLine
 10
604.630612
 20
1855.895446
 30
0.0
 11
644.654191
 21
1851.67117
 31
0.0
  0
ARC
  5
28C
100
AcDbEntity
  8
035-DWG
100
AcDbCircle
 10
553.675243
 20
1841.494058
 30
0.0
 40
1.0
100
AcDbArc
 50
212.677527
 51
258.623705
  0
LINE
  5
28D
100
AcDbEntity
  8
035-DWG
100
AcDbLine
 10
552.83352
 20
1840.954147
 30
0.0
 11
544.247301
 21
1854.340104
 31
0.0
  0
ARC
  5
28E
100
AcDbEntity
  8
025-DWG
100
AcDbCircle
 10
393.63464
 20
1813.35196
 30
0.0
 40
177.5
100
AcDbArc
 50
11.045404
 51
22.132827
  0
ARC
  5
28F
100
AcDbEntity
  8
035-DWG
100
AcDbCircle
 10
540.303121
 20
1841.488061
 30
0.0
 40
1.0
100
AcDbArc
 50
200.933725
 51
260.399244
  0
LINE
  5
290
100
AcDbEntity
  8
025-DWG
100
AcDbLine
 10
553.477991
 20
1840.513705
 30
0.0
 11
540.13634
 21
1840.502067
 31
0.0
  0
LINE
  5
291
100
AcDbEntity
  8
025-DWG
100
AcDbLine
 10
552.83352
 20
1840.954147
 30
0.0
 11
539.369127
 21
1841.130773
 31
0.0
  0
LINE
  5
292
100
AcDbEntity
  8
035-DWG
100
AcDbLine
 10
539.369127
 20
1841.130773
 30
0.0
 11
535.935044
 21
1850.107889
 31
0.0
  0
POLYLINE
  5
293
100
AcDbEntity
  8
035-DWG
100
AcDb2dPolyline
 66
     1
 10
0.0
 20
0.0
 30
0.0
 70
     2
  0
VERTEX
  5
294
100
AcDbEntity
  8
035-DWG
100
AcDbVertex
100
AcDb2dVertex
 10
544.247301
 20
1854.340104
 30
0.0
 42
0.057529
  0
VERTEX
  5
295
100
AcDbEntity
  8
035-DWG
100
AcDbVertex
100
AcDb2dVertex
 10
542.733102
 20
1854.619068
 30
0.0
 42
0.057529
 70
     1
  0
VERTEX
  5
296
100
AcDbEntity
  8
035-DWG
100
AcDbVertex
100
AcDb2dVertex
 10
541.195171
 20
1854.545692
 30
0.0
 42
0.135368
  0
VERTEX
  5
297
100
AcDbEntity
  8
035-DWG
100
AcDbVertex
100
AcDb2dVertex
 10
537.953157
 20
1853.052136
 30
0.0
 42
0.135368
 70
     1
  0
VERTEX
  5
298
100
AcDbEntity
  8
035-DWG
100
AcDbVertex
100
AcDb2dVertex
 10
535.935044
 20
1850.107889
 30
0.0
  0
SEQEND
  5
299
100
AcDbEntity
  8
035-DWG
  0
ARC
  5
29A
100
AcDbEntity
  8
035-DWG
100
AcDbCircle
 10
540.452072
 20
1841.464095
 30
0.0
 40
2.2
100
AcDbArc
 50
199.422035
 51
260.461406
  0
LWPOLYLINE
  5
29B
100
AcDbEntity
  8
025-DWG
  6
CONTINUOUS
100
AcDbPolyline
 90
        4
 70
   128
 43
0.0
 10
623.556106
 20
1852.73338
 10
623.655368
 20
1852.22883
 10
623.808459
 20
1851.434299
 10
623.94308
 20
1850.721072
  0
LWPOLYLINE
  5
29C
100
AcDbEntity
  8
025-DWG
  6
CONTINUOUS
100
AcDbPolyline
 90
        5
 70
   128
 43
0.0
 10
646.401706
 20
1848.843695
 10
646.175636
 20
1849.498865
 10
645.740426
 20
1850.036761
 10
645.141413
 20
1850.396699
 10
644.635712
 20
1850.517824
  0
LWPOLYLINE
  5
29D
100
AcDbEntity
  8
025-DWG
  6
CONTINUOUS
100
AcDbPolyline
 90
        5
 70
   128
 43
0.0
 10
644.654191
 20
1851.67117
 10
645.625264
 20
1851.397481
 10
646.446306
 20
1850.820838
 10
647.036802
 20
1849.995923
 10
647.303041
 20
1849.149469
  0
LWPOLYLINE
  5
29E
100
AcDbEntity
  8
025-DWG
  6
CONTINUOUS
100
AcDbPolyline
 90
        9
 70
   128
 43
0.0
 10
644.635712
 20
1850.517824
 10
644.61619
 20
1850.543035
 10
644.602383
 20
1850.612896
 10
644.594926
 20
1850.724189
 10
644.594163
 20
1850.871787
 10
644.600129
 20
1851.048892
 10
644.612548
 20
1851.247346
 10
644.63085
 20
1851.458006
 10
644.654191
 20
1851.67117
  0
LWPOLYLINE
  5
29F
100
AcDbEntity
  8
025-DWG
  6
CONTINUOUS
100
AcDbPolyline
 90
        9
 70
   128
 43
0.0
 10
658.099186
 20
1862.867988
 10
658.139675
 20
1863.029889
 10
658.181505
 20
1863.180782
 10
658.223425
 20
1863.316146
 10
658.264179
 20
1863.431927
 10
658.302544
 20
1863.524654
 10
658.337372
 20
1863.591549
 10
658.367619
 20
1863.630609
 10
658.392379
 20
1863.640662
  0
LWPOLYLINE
  5
2A0
100
AcDbEntity
  8
025-DWG
  6
CONTINUOUS
100
AcDbPolyline
 90
        9
 70
   128
 43
0.0
 10
659.256797
 20
1861.696617
 10
659.454315
 20
1861.734514
 10
659.647284
 20
1861.762734
 10
659.827872
 20
1861.780131
 10
659.988752
 20
1861.786
 10
660.123396
 20
1861.780102
 10
660.22634
 20
1861.762676
 10
660.293407
 20
1861.734431
 10
660.321877
 20
1861.696511
  0
LWPOLYLINE
  5
2A1
100
AcDbEntity
  8
025-DWG
  6
CONTINUOUS
100
AcDbPolyline
 90
        5
 70
   128
 43
0.0
 10
659.256797
 20
1861.696617
 10
659.067722
 20
1862.179232
 10
658.725402
 20
1862.569991
 10
658.270836
 20
1862.820504
 10
658.099186
 20
1862.867988
  0
LWPOLYLINE
  5
2A2
100
AcDbEntity
  8
035-DWG
  6
CONTINUOUS
100
AcDbPolyline
 90
        5
 70
   128
 43
0.0
 10
658.392379
 20
1863.640662
 10
659.174136
 20
1863.329787
 10
659.80682
 20
1862.779247
 10
660.223206
 20
1862.046653
 10
660.321877
 20
1861.696511
  0
LWPOLYLINE
  5
2A3
100
AcDbEntity
  8
025-DWG
  6
CONTINUOUS
100
AcDbPolyline
 90
        9
 70
   128
 43
0.0
 10
646.401706
 20
1848.843695
 10
646.414488
 20
1848.876178
 10
646.461847
 20
1848.913095
 10
646.542105
 20
1848.953136
 10
646.652413
 20
1848.994879
 10
646.788858
 20
1849.036846
 10
646.946601
 20
1849.077546
 10
647.120046
 20
1849.115536
 10
647.303041
 20
1849.149469
  0
LWPOLYLINE
  5
2A4
100
AcDbEntity
  8
025-DWG
  6
CONTINUOUS
100
AcDbPolyline
 90
        5
 70
   128
 43
0.0
 10
622.279887
 20
1852.867516
 10
622.048958
 20
1852.740254
 10
621.53303
 20
1852.528369
 10
620.977081
 20
1852.387783
 10
620.410465
 20
1852.325921
  0
LINE
  5
2A5
100
AcDbEntity
  8
025-DWG
  6
CONTINUOUS
100
AcDbLine
 10
620.963765
 20
1853.005846
 30
0.0
 11
620.514186
 21
1853.022887
 31
0.0
  0
LWPOLYLINE
  5
2A6
100
AcDbEntity
  8
025-DWG
  6
CONTINUOUS
100
AcDbPolyline
 90
        5
 70
   128
 43
0.0
 10
620.410465
 20
1852.325921
 10
620.340666
 20
1852.57206
 10
620.357357
 20
1852.770234
 10
620.478992
 20
1852.991449
 10
620.514186
 20
1853.022887
  0
LWPOLYLINE
  5
2A7
100
AcDbEntity
  8
025-DWG
  6
CONTINUOUS
100
AcDbPolyline
 90
        5
 70
   128
 43
0.0
 10
621.270538
 20
1850.66117
 10
621.033724
 20
1851.100902
 10
620.79377
 20
1851.558077
 10
620.595295
 20
1851.94771
 10
620.410465
 20
1852.325921
  0
LWPOLYLINE
  5
2A8
100
AcDbEntity
  8
025-DWG
  6
CONTINUOUS
100
AcDbPolyline
 90
        9
 70
   128
 43
0.0
 10
623.94308
 20
1850.721072
 10
623.876444
 20
1850.797487
 10
623.711376
 20
1850.851846
 10
623.454671
 20
1850.881912
 10
623.116899
 20
1850.886448
 10
622.711966
 20
1850.865265
 10
622.256544
 20
1850.819238
 10
621.769382
 20
1850.750259
 10
621.270538
 20
1850.66117
  0
ENDSEC
  0
SECTION
  2
OBJECTS
  0
DICTIONARY
  5
1A
100
AcDbDictionary
  3
ACAD_GROUP
350
18
  3
ACAD_MLINESTYLE
350
19
  0
DICTIONARY
  5
18
102
{ACAD_REACTORS
330
1A
102
}
100
AcDbDictionary
  0
DICTIONARY
  5
19
102
{ACAD_REACTORS
330
1A
102
}
100
AcDbDictionary
  3
STANDARD
350
1D
  0
MLINESTYLE
  5
1D
102
{ACAD_REACTORS
330
19
102
}
100
AcDbMlineStyle
  2
STANDARD
 70
     0
  3

 62
     0
 51
90.0
 52
90.0
 71
     2
 49
0.5
 62
   256
  6
BYLAYER
 49
-0.5
 62
   256
  6
BYLAYER
  0
ENDSEC
  0
EOF
